When the Children Cry

Artist: White Lion (English)
User: msyahnaz
Duration: 130 seconds
Delay: 12 seconds
Chord names: Default
Abusive:
Comment: -

URL

Updated last time:
msyahnaz,
November 3, 2018, 7:29 PM

Text

 White Lion – When the Children Cry
 132 bpm 4/4

 Intro
 G  D  Em  Bm    C  G  Em  D    Bm7 * F# 

 Verse 1
 G        D      Em          Bm         
   Little child,    dry your crying eyes
 C         G             Em              D 
   How can I explain the fear you feel inside
 G                 D    Em           Bm         
   ‘cause you were born    into this evil world 
 C              G               Em           D 
   where man is killing man and no one knows just why.

 Pre Chorus 1 
 C           Bm        Em           Bm                
   What have we become?   Just look what we have done. 
 C          G               Em             D 
   All that we’ve destroyed you must build again.

 Interlude 1
 (D

 Chorus
          Em       Bm            C       G 
 When the children cry, let them know we tried 
                  Em       Bm            C         D 
 because when the children sing then the new world begins.

 Interlude 2
D (D.) 

 Verse 2
 G        D     Em          Bm          
  Little child    you must show the way 
 C      G              Em      D 
   to a better day for all the young
 G                 D    Em             Bm      
   ‘cause you were born    for all the world to 
 C           G                 Em       D 
 see that we all can live with love and peace.

 Pre Chorus 2
 C         Bm         Em             Bm            
   No more presidents    and all the wars will end.
 C     G            Em       D 
   One united world    under god.

 Interlude 1
D 

 Chorus
          Em       Bm            C       G 
 When the children cry, let them know we tried  
                  Em       Bm            C         D 
 because when the children sing then the new world begins.

 Interlude 1
 D 
 
 Solo
 G  D  Em  Bm    C  G  Em  D   
 G  D  Em  Bm    C  G  Em  D 

 Pre Chorus 1 
 C           Bm        Em           Bm                
   What have we become?   Just look what we have done. 
 C          G               Em             D 
   All that we’ve destroyed you must build again.

 Pre Chorus 2
 C         Bm         Em             Bm            
   No more presidents    and all the wars will end.
 C     G            Em       D 
   One united world    under god.

 Interlude 1
D 

 Outro
          Em       Bm            C       G      
 When the children cry, let them know we tried. 
          Em       Bm              C             D 
 When the children fight, let them know it ain’t right.
          Em       Bm             C        G       
 When the children pray, let them know the way. 
          Em       Bm             C       * D 
 When the children sing, then the new world begins.


White Lion – When the Children Cry (Intro Tabs)
132 bpm 4/4

Intro
e|-0-------12-------|10-------8--7----|-10-------8-------|7----------3—2---|
B|---0---0----0---0-|---0---0---0--0--|----0---0---0---0-|---0---0---------|
G|-----0--------0---|-----0-----------|------0-------0---|-----0-----------|
D|------------------|-----------------|------------------|-----------------|
A|------------------|-----------------|------------------|-----------------|
E|-0----------------|-----------------|------------------|-----------3--2--|

e|-0-------12-------|10-------8--7----|-10-------8-------|7----------------|
B|---0---0----0---0-|---0---0---0--0--|----0---0---0---0-|---0---0---0--3--|
G|-----0--------0---|-----0-----------|------0-------0---|-----0-----------|
D|------------------|-----------------|------------------|-----------------|
A|------------------|-----------------|------------------|-----------------|
E|-0----------------|-----------------|------------------|-----------3--2--|
  
   E/B                Bm                C                  G 
e|----------0-------|---------0-------|--------------0---|-3---------------|
B|------------0---0-|-3-----3---3-----|-1--------1h3---0-|---3---3---3---3-|
G|-------0------0---|---4---------4---|---0---0----------|-----0-----------|
D|-----4------------|-----4---------4-|-----2------------|-----------------|
A|---2--------------|-2---------------|-3----------------|-----------------|
E|-0----------------|-----------------|------------------|-3-------3---2---|

   E/B                Bm                C                  D
e|----------0-------|---------0-------|--------------0---|-2-------2h3p2-0-|
B|------------0---0-|-3-----3---3-----|-1--------1h3---0-|---3---3--------3|
G|-------0------0---|---4---------4---|---0---0----------|-----2-----------|
D|-----4------------|-----4---------4-|-----2------------|-0---------------|
A|---2--------------|-2---------------|-3----------------|-----------------|
E|-0----------------|-----------------|------------------|-----------------|

   Bm7                             
e|--5------5---10---|-----------------|
B|----7--------10---|-(7)-------------|
G|------7-----------|-----------------|
D|--0---------------|-----------------|
A|------------------|-----------------|
E|------------------|-----------------|

Comments