Last added comments:
Capo 2
:)
Аккорды верные)
(хотя можно выпендриться и ставить все в баре)
!
March 13, 2015 7:24 PM
Может, стоит отметить эту песню как матерную?
Вы вправе играть в любой тональности, какой пожелает ваш вокал. Но ближе к оригинальной...
Gm Eb+7 Dm
E||--------5---5/6-----------|---------------------------|
H||--------------------3-----|--------3-----------6--4/3-|
G||-----------------------3--|-----3-----3---------------|
D||-----5-----------5--------|--1--------------7---------|
A||--------------------------|--------------5------------|
E||--3-----------------------|---------------------------|

Gm Eb+7 Dm7
|--------5---5/6-----------|----------1------------||
|--------------------3-----|-----3----1----4----3--||
|-----------------------3--|-----3----2------------||
|-----5-----------5--------|--1-------0------------||
|--------------------------|-----------------------||
|--3-----------------------|-----------------------||
C# G#
Эта песня для тебя-слышишь?
D#m F#
Моя музыка тобой дышит
Оо. Это мотивирует)
March 10, 2015 5:59 PM
Не обязательно админ: вроде каждый, кто 10 хорошо оформленных песен загрузит может редактировать)
March 9, 2015 10:53 AM
Bardzo dokładnie dobrane chwyty
Увы, редактировать может только тот кто выложил. Ну или админ)
ARNik, дело даже не в новичках, а в вокале. Кому-то надо выше, кому-то - ниже. Берите ту тональность - под которую вам удобнее петь