See you again tab refrain

Artist: Charlie Puth (English)
User: Bai nyo sotomayor
Duration: 130 seconds
Delay: 12 seconds
Chord names: Not defined
Abusive:
Comment: -

URL

Uploaded:
November 25, 2022, 12:40 AM

Text

Ritmo Primeira Parte]

   Em7   G     D9  C9    G     
E|-----x-----x---------x-----x----
B|-0-0-x-0---x-3---3-3-x-3---x-3--
G|-0-0-x-0---x-2---0-0-x-0---x-2--
D|-0-0-x-0---x-0---0-0-x-0---x-0--
A|-----x-----x-----3---x-----x----
E|-0---x-3-3-x---------x-3-3-x----

[Teceira Parte]

[Parte 1
]

   Am7      G        D11 
E|-------------------------------
B|-1---1----0---0----3---3---3---
G|-0---0----0---0----0---0---0---
D|---2---2----0---0----4---4---4-
A|-0-----------------5-----------
E|----------3--------------------

E|-----------| 
B|3----------| 
G|0----------| 
D|--4--------| 
A|-----------| 
E|-----------| 

[Parte 2
]

   Am7      G 
E|--------------------------------
B|-1---1----0---0-----------------
G|-0---0----0---0-----------------
D|---2---2----0---0---------------
A|-0------------------------------
E|----------3---------------------

[Parte 3
]

   G    G/F#  Em7   G/D 
E|--------------------------------
B|-0-----0-----0-----0------------
G|-0-----0-----0-----0------------
D|-0-----0-----0-----0------------
A|--------------------------------
E|-3-----2-----0------------------

[Parte 4
]

   C9       C4+(9)   C9 
E|-------------------------------
B|-3---3----3---3----3---3---3---
G|-0---0----0---0----0---0---0---
D|---2---2----4---4----2---2---2-
A|-3--------3--------5-----------
E|-------------------------------

E|-----------| 
B|3----------| 
G|0----------| 
D|--2--------| 
A|-----------| 
E|-----------|

Comments