Care less [Tabs]

Artist: Lany (English)
User: Jimuel Villamente
Duration: 130 seconds
Delay: 12 seconds
Chord names: Not defined
Abusive:
Comment: -

URL

Updated last time:
Jimuel Villamente,
May 14, 2022, 8:20 AM

Text

[Intro]

e|------------------------------------------------------|
B|------------------------------------------------------|
G|-12-12h14-7-7-7h9-5--12-12h14-7-10-9----10-9----------|
D|-------------------------------------10------10-10~---|
A|------------------------------------------------------|
E|------------------------------------------------------|

[Outro]

e|------------------------------------------------------|
B|------------------------------------------------------|
G|-12-12h14-7-7-7h9-5--12-12h14-7-10-9----10-9----------|
D|-------------------------------------10------10-10~---|
A|------------------------------------------------------|
E|------------------------------------------------------|

************************************

| h   Hammer-on
| ~   Vibrato

************************************

Comments