Music To My Eyes

Artist: Bradley Cooper (English)
User: Dj Ken Lindsay - Big Event Entertainment
Duration: 130 seconds
Delay: 25 seconds
Chord names: Not defined
Abusive:
Comment: -

URL

Updated last time:
Dj Ken Lindsay - Big Event Entertainment,
September 17, 2021, 12:59 AM

Text

Guitar chords with lyrics
Tuning: Standard ( E  A  D  G  B E)

Music to my eyes from A chord diagramA augmentedA star is born
Lady Gaga & Bradley Cooper

Difficulty: Novice

Intro:

E|---2----------2----------2----------2--------------------------------------|
B|---3-----3----3-----3----3-----3----3----3---------------------------------|
G|---2-------2--3----------4----------5-------5------------------------------|
D|---0----------0----------0----------0--------------------------------------|
A|---------------------------------------------------------------------------|
E|---------------------------------------------------------------------------|

 G  C  D 


Verse 1:
                   D 
You're music to my eyes
                     Em           F#m 
I had to listen just to find you
           Em                        A 
I like for you to let me sing along
                      D       A 
Give you a rhythm you feel

                         D 
I wanna learn your every line
                  Em           F#m 
I wanna fill your empty spaces
       Fm  Em                           A 
I want to play the part to reach your heart
                         D       A 
Sing you a song that you feel



Pre-Chorus:
 D                      F#m 
Love let your music be mine
                  G 
Sing while I harmonize
                  Em 
Let your melodies fly in my direction
 D                    F#m 
Take me to your paradise
             G 
On a musical ride
                      Em        A 
I'm in love with your music baby
                   D 
You're music to my eyes


Chorus:

(Guitar 1 - strumming; Guitar 2 - Intro Riff)

E|---2-------2-------2-------2-------3---------------3-----------------------|
B|---3-------3-------3-------3-----------------------2-----------------------|
G|---2-------3-------4-------5-----------------------3-----------------------|
D|---0-------0-------0-------0---------------2-------------------------------|
A|-----------------------------------2-------2-------------------------------|
E|-----------------------------------3-------0-------------------------------|


Verse 2:
                    D 
Your voice is quite a view
                   Em               F#m 
I heard a song and then I saw you
              Em                              A 
I learned the lyrics and knew you were mine
                       D       A 
Dance the horizon with you

                      D 
I wanna sing you a sunrise
                  Em                   F#m 
And be the dawn I know will move you
         Fm  Em                            A 
I'd like to be the strings on your guitar
                           D        A 
Touch me and play what you feel


Pre-Chorus:
 D                       F#m 
Love let your music be mine
                  G 
Sing while I harmonize
                  Em 
Let your melodies fly in my direction
 D                    F#m 
Take me to your paradise
              G 
On a musical ride
                      Em          A 
I'm in love with your music baby
                   D 
You're music to my eyes


Chorus:

(Guitar 1 - strumming; Guitar 2 - Intro Riff)

E|---2-------2-------2-------2-------3---------------3-----------------------|
B|---3-------3-------3-------3-----------------------2-----------------------|
G|---2-------3-------4-------5-----------------------3-----------------------|
D|---0-------0-------0-------0---------------2-------------------------------|
A|-----------------------------------2-------2-------------------------------|
E|-----------------------------------3-------0-------------------------------|

Comments