Suite: Judy Blue Eyes (with TAB)

Artist: Crosby, Stills, Nash & Young (English)
User: Stefano De Franceschi
Duration: 240 seconds
Delay: 8 seconds
Chord names: Not defined
Abusive:
Comment: -

URL

Uploaded:
September 16, 2020, 10:36 AM

Text

Tuning for guitar one EBEEEE.

Chord map
----E--E[no5]--E[no3]--Asus2--B(no3)--B6(no3)--A7sus4--Esus4--D6(no3)--D(no5)
E --7----4-------0-------0------7--------7-------3-------5-------0-------2--|
B --9----5-------0-------0------7--------9-------3-------5-------0-------3--|
E --0----0-------0-------0------7--------7-------0-------0-------0-------0--|
E --0----0-------0-------5------7--------7-------0-------0------10-------0--|
E --0----0-------0-------5------7--------7-------0-------0------10-------0--|
E --0----0-------0-------0------7--------7-------0-------0-------0-------0--|
 
----A/E--E7(no3)--C#m(no3)--D/E--C#m(no3)-C#m(no3)2-A(no3)--F#m(no3)--
E –-9-----10---------0------14---12-------9---------5-------14-------|
B –10-----12---------1------12---10-------9---------5-------14-------|
E –-0------0---------0------12---10-------0---------5-------14-------|
E –-0------0---------0------0----0--------0---------5-------14-------|
E –-0------0---------0------0----0--------0---------5-------14-------|
E –-0------0---------0------0----0--------0---------5-------14-------|

--D(no3)2--E(no3)2--Bm[no3]----
E –--10------12-------7--------|
B –--10------12-------7--------|
E –--10------12-------7--------|
E –--10------12-------7--------|
E --–10------12-------7--------|
E –--10------12-------7--------|
__________________________________________________________________________
 
Intro Guitar One:
E -7-7-7-7-7-7-7-7-7-6-5--4--0-4--0-0-0-0-0---4-0-0-0-0-0------|
B -9-9-9-9-9-9-9-9-9-8-7--5--0-5--0-2p0-2p0---5-0-2p0-2p0------|
E -0-0-0-0-0-0-0-0-0-0-0--0--0-0--0-0-0-0-0---0-0-0-0-0-0-0-0--|
E -0-0-0-0-0-0-0-0-0-0-0--0--0-0--0-0-0-0-0---0-0-0-0-0-0-0-0--|
E -------------------------------------------------------------|
E -------------------------------------------------------------|
 
      E(no5)         Asus2       E(no3)  B(no3)  Asus2      A7sus4
It's getting to the point, where I'm no fun anymore, I am sorry
 E(no3)       Asus2            E(no3)       B(no3)     Asus2 A7sus4
Sometimes it hurts so badly I must cry out loud, I am lonely
      E(no3)         B(no3)        Asus2       A7sus4        E(no3)Asus2
I am yours, you are mine, you are what you are, you make it hard
  
   E(no5)            Asus2               E(no3)          B(no3)
Remember what we've said, and done, and felt about each other,
               Asus2 A7sus4
Oh babe, have mercy
 E(no3)        Asus2            E(no3)          B(no3)
Don't let the past remind us of what we are not now,
          Asus2 A7sus4
I am not dreaming
      E(no3)         B(no3)                     Asus2        A7sus4
I am yours, you are mine, you are what you are, you make it hard
 
(Guitar Intro)
 
  E(no5)     Asus2             E(no3)       B(no3)        Asus2
Tearing yourself away from me now, you are free and I am crying
  E(no3)       Asus2                    E(no3)        B(no3)
This does not mean I don't love you, I do, that's forever,
             Asus2 A7sus4
Yes and for always
      E(no3)         B(no3)        Asus2        A7sus4       E(no3Asus2
I am yours, you are mine, you are what you are, you make it hard
 
   E(no5)   Asus2                  E(no3)        B(no3)*
Something inside is telling me that I've got your secret,
               Asus2 A7sus4
Are you still listening?
   E(no3)    Asus2                 E(no3)      B(no3)*      Asus2 A7sus4
Fear is the lock and laughter the key to your heart, and I love you
      E(no3)         B(no3)        Asus2        A7sus4       E(no3Asus2
I am yours, you are mine, you are what you are, you make it hard
                 E(no3)Asus2             E(no3)Asus2             E(no3)
And you make it hard,   and you make it hard,    and you make it hard
 
-12th fret harmonic
 
Main riff throughout the second part:
E --------5-5--4-5----------|
B --------5-5--5-5----------|
E --------0-0--0-0----------|
E --------------------------|
E --------------------------|
E -0-0------0---------------|
 
                                    Asus2 A7sus4
Friday evening, Sunday in the afternoon,        what have you got to lose?
                                               Asus2 A7sus4
Tuesday morning please, be gone, I'm tired of you,      what have you got to lose?
       D6(no3)             Asus2
Can I tell it like it is? Listen to me baby
         Asus2
It's my heart that's a-sufferin', it's a dyin' and that's what I have to lose
                                      Asus2 A7sus4
I've got an answer, I'm going to fly away,       what have I got to lose?
                                     Asus2    A7sus4
Will you come see me, Thursdays and Saturdays,    what have you got to lose?
 
Solo played by guitar
-[7]h9-7---[7]h9-7---[7]h9-7---------|-[7]h9-7--[7]h9-7-------------------------------|
-----------------------------9--7--5-|------------------10-10-7--9-6--6-8-6-4--4--6-3-|
-------------------------------------|------------------------------------------------|
-------------------------------------|------------------------------------------------|
-------------------------------------|------------------------------------------------|
-------------------------------------|------------------------------------------------|
 
4:51
------------5-7---7-7--------------------|--------------------|
-2--0~--5-7-----------------3~--3-[0]-5b-|-7--9--10-9--7--5---|
-----------------------[5]~--------------|--------------------|
-----------------------------------------|--------------------|
-----------------------------------------|--------------------|
-----------------------------------------|--------------------|

    D(no5)         E(no5)   D(no5)       E(no5)
Chestnut brown canary, ruby throated sparrow
 Esus2        A/E             E7(no3)   D(no5C#m(no5]
Sing a song, don't be long, thrill me to the  marrow
____________________________________________________________________
2nd Solo:
-------------10/12-12-------10/12-|----------------------4/5-5-----------|
-7--9--10-12----------9--7~-------|-9-7-6-4-2--1~--5/7-7--------9--7--5--|
----------------------------------|--------------------------------------|
----------------------------------|--------------------------------------|
----------------------------------|--------------------------------------|
----------------------------------|--------------------------------------|
____________________________________________________________________

  D[no5]        E[no5]  D[no5]          E[no5]
Voices of the angels, ring around the moonlight
 Esus2           A/E           E7[no3]       D[no5]     C#m[no5]
Asking me, said she's so free, how can you catch the sparrow?
____________________________________________________________________
3rd Solo:
-----------------------|-----10--10-9-9----------------|
-7/9-9--10--9-9--10-12-|-7-9-----7--7-7--[7]-9--10-10--|
-----------------------|------------------------9--9---|
-----------------------|-------------------------------|
-----------------------|-------------------------------|
-----------------------|-------------------------------|
 
---------------------------|
--3--2--0------------------|
----------4--4-2--0--0-----|
---------------------------|
---------------------------|
---------------------------|
______________________________________________________________________
 D[no5]        E[no5D[no5]       E[no5]
Lacy lilting lady, losing love lamenting
 Asus2           A/E          E7[no3D[no5C#m[no5]
Change my life, make it right, be my lady
 
 D/E  C#m/E  D/E  C#m/E  D/E  C#m/E  D/E C#m/E D/E C#m/E C#m/E2 Bm/E
 
 A(no3)   Bm(no3)  F#m(no3)        D(no3)2 E(no3)2
Du du du du du,     du      du    du du du du
 A(no3)         Bm(no3)   F#m(no3)  D(no3)2 E(no3)2
Du du du du du,  du      du        du du
 
[Repeat 7 times]
 
Que linda me la traiga Cuba,
la reina de la Mar Caribe.
Cielo sol no tiene sangreahi,
y que triste que no puedo vaya,
Oh va, oh va, va.

Comments