One More Fucking Time

Artist: Motorhead (English)
User: hallonnakil
Duration: 130 seconds
Delay: 12 seconds
Chord names: Not defined
Abusive:
Comment: -

URL

Updated last time:
hallonnakil,
July 22, 2020, 10:52 AM

Text

[Intro]
e|-------------------|-----|--3--|-3----------------------------------------------------------|
B|---3p2-------------|-----|--5--|-5----------------------------------------------------------|
G|-2-----2--------2--|--5--|--5--|-5------------0-------0--2------------0-------0--2--2--0h2--|
D|-2-------2----2----|--5--|--5--|-5----------0-------0----2----------0-------0----2--2--0h2--|
A|-0----------0------|--3--|--3--|-3--------2-------0------0--------2-------0------0--0--0----|
E|-------------------|-----|-----|----0-2-3-------2-----------0-2-3-------2-------------------|
 
  [Verse]
e|-------------------|-----|--3--|-3---------------------------|
B|---3p2-------------|-----|--5--|-5---------------------------|
G|-2-----2--------2--|--5--|--5--|-5------------0-------0--2---|
D|-2-------2----2----|--5--|--5--|-5----------0-------0----2---|
A|-0----------0------|--3--|--3--|-3--------2-------0------0---|
E|-------------------|-----|-----|----0-2-3-------2------------|
 

[Chorus]
 Em                            C 
Both your eyes wide open, you see the shape Iom in
 D                              Em 
It wasnot on my choosing, itos only bones and skin
                                C 
And I will plead no contest, if loving you is a crime
      D                           A 
So go on and find me guilty, just one more fucking time
 
[Bridge]
 C                                           G 
And if I would be a bad man, you would have seen the good in me
 D                                  A 
You would have seen the other, the good man I could be
 C                              G 
But since I am a good man, the same was all the same
 D                   A 
Nothing I could do, NoTHING I CoULD Do

Comments