Лучи

Artist: Быханов Сад (Русский)
User: Рулон Обоев
Duration: 130 seconds
Delay: 12 seconds
Chord names: Not defined
Abusive:
Comment: -

URL

Uploaded:
May 13, 2020, 4:16 PM

Text

e|----------------------------------
B|-----1---1---1---------1-------1--
G|----------------------------------
D|-------------------0p2---2-0-0---2
A|-3-3---3---3---3-3----------------

e|---------------------------------0
B|-----1---1---1---------1-------3--
G|----------------------------------
D|-------------------0p2---2-0-0----
A|-3-3---3---3---3-3----------------

 F  C 

no lyrics

Comments