Wish You Were Here...

Artist: Pink Floyd (English)
User: Travis Fleury
Duration: 130 seconds
Delay: 12 seconds
Chord names: Not defined
Abusive:
Comment: -

URL

Uploaded:
March 23, 2020, 3:10 AM

Text

Wish You Were Here chords by Pink Floyd

Difficulty: novice
Tuning: E  A  D  G  B  E 
Key: Em 

STRUMMINGEdit
1
&
2
&
3
&
4
&
5
&
6
&
7
&
8
&
1
&
2
&
3
&
4
&
1
&
2
&
3
&
4
&
[Intro]
                     Em7                G 
e|-------------------3-3----------------3-3---------|
B|-------------------3-3----------------3-3---------|
G|-------------------0-0------0---------0-0---------|
D|----------0--2-----2-2---2-----2--0---0-0---------| x2
A|-----0h2-------2---2-2----------------2-2---------|
E|--3----------------0-0----------------3-3---------|
 
                     Em7               A7sus4
e|-------------------3-3----------------3-3---------|
B|-------------------3-3----------------3-3---------|
G|-------------------0-0----------------2-2---------|
D|----------0--2-----2-2--2--0----------2-2---------| x2
A|-----0h2-------2---2-2--------2--0----0-0---------|
E|--3----------------0-0----------------------------|
 
               G 
e|-------------3-3-------|
B|-------------3-3-------|
G|-------------0-0-------|
D|-------------0-0-------|
A|--0-2-0------2-2-------|
E|---------3---3-3-------|
 
 
[Verse 1]
 C                         D/F# 
So, so you think you can tell,
             Am/E                   G 
Heaven from Hell, blue skies from pain.
                     D/F#                      C                    Am 
Can you tell a green field from a cold steel rail, a smile from a veil,
                      G 
Do you think you can tell?
 
[Verse 2]
                      C                   D/F# 
Did they get you to trade your heroes for ghosts,
                Am/E                  G                             D/F# 
Hot ashes for trees, hot air for a cool breeze, cold comfort for change,
                  C                        Am                         G 
And did you exchange a walk on part in the war for a lead role in a cage?
 
[Instrumental]
 Em7  G  Em7  G  Em7  A7sus4  Em7  A7sus4  G 
 
[Verse 3]
 C                               D/F# 
How I wish, how I wish you were here.
           Am/E                                    G                D/F# 
We're just two lost souls swimming in a fish bowl, year after year,
                                  C 
Running over the same old ground. What have we found?
             Am                         G 
The same old fears. Wish you were here!
 
[Instrumental]
 Em7  G  Em7  G  Em7  A7sus4  Em7  A7sus4  G  x2

Comments