Somethink

Artist: Fazerdaze (Русский)
User: Рулон Обоев
Duration: 130 seconds
Delay: 12 seconds
Chord names: Not defined
Abusive:
Comment:
by hynek.puta from tabs.ultimate-guitar.com

URL

Updated last time:
Рулон Обоев,
February 17, 2020, 8:59 PM

Text

A|x-x-x-x--------2-2--2--2-2--2
E|2-2--2--2-2--2

G|---3...--4-
D|-4--...4---

A|13-13/14\13-11-9

e|6-6-6-6-6-6-6-6-6-6-6-6-6-6

e|14\11-11\9-----------------
B|-----------14\11-11\9------
G|---------------------13-11-

e|14-14-11-11--
B|------------14-14-11-11-
G|------------------------13-13-11

Something in the way you look inside
Something in the way you leap
Something in the way your smile disappears
When you look at me

Something in the way you love me
Something in the way you don't
Something in the way you talk so sadly
Something in the way you look

Something in the way you hate me
Something in the way you don't
Something in the way we breathe each other
Something in the way we choke

Comments