Radioactive

Artist: RADIO TAPOK (Русский)
User: Поколение Freerun
Duration: 130 seconds
Delay: 12 seconds
Chord names: Default
Abusive:
Comment:
Огонь

URL

Updated last time:
Поколение Freerun,
May 19, 2019, 1:58 PM

Text

Radioactive     Радиоактивен 
Оригинальная тональность с каподастром на 2 ладу. 
Вступление: ×2раза

e|------------------------0-------
B|------1---------3-------------3-
G|2~0-2-----2~0-2---2~0-2-----2---
D|--------------------------------
A|0-------0---------3-------3-----
E|--------------------------------

e|--------------------------------
B|------1---------3-------1-------
G|2~0-2-----2~0-2---2~0-2-----0~2-
D|------------------0-------0-----
A|--------------------------------
E|3-------3-----------------------
 
Куплет:
e|--------0---0----------0---0----
B|--------1------3-------1-----3--
G|----2--------------0------------
D|------2--------------2----------
A|-0------×--------3-----×--------
E|--------×--------------×--------

e|--------------------------------
B|--------0-0---1---0-0---1---0---
G|----0---0-----------------------
D|------0---------0-------0-----0-
A|--------------------------------
E|3-------------------------------

e|--------0-0---------------------
B|--------1------3---------1------
G|----2----------------0---0---0-0
D|------2----------------2--------
A|0-------×--------3-------×------
E|--------×----------------×------

e|--------------------------------
B|-----------0-------------1------
G|---------2-------2--------------
D|-----0-----------0--------------
A|--------------------------------
E|-3------------------------------

e|--------0---0----------0-0------
B|--------1------3-------1-----3--
G|----2--------------0------------
D|------2--------------2----------
A|-0------×--------3-----×--------
E|--------×--------------×--------

e|--------------------------------
B|--------0-0---1---0-0---1---0---
G|----0---0---------------2-------
D|------0---------0-------0-----0-
A|--------------------------------
E|3-------------------------------

e|----------0-0-------------------
B|----------1------3---------1----
G|------2----------------0---0-0-0
D|--------2----------------2------
A|-0--------×--------3-------×----
E|----------×----------------×----

e|--------------------------------
B|-------------0------------------
G|---------------2-×--------------
D|-----------0--------------------
A|---------×---------5/7---7---7--
E|-3---3---×----------------------

Припев:

e|-----0---5---5---3---3---0------
B|---------5-------1-------1------
G|---------5-------0-------0----0-
D|--------------------------------
A|-5---------------3-----------3--
E|---------×---------------×------

e|-----3---3---3---2---2----------
B|---------0-------3-------3------
G|---------0-------2-------2------
D|-----------------0-------0------
A|--------------------------------
E|-3--------×--------------×------

e|-0---0---0-----------3---0------
B|---3---3-1-------------0-1------
G|---------2---2~0---------0---0--
D|--------------------------------
A|-0-------×-------3--------------
E|-------------------------×------


e|-0---0---0----------------------
B|---3---3---------------------1--
G|---------0---0-------2-2-2------
D|-----------------0-------0------
A|--------------------------------
E|-3-------×---------------×------


e|---0---------------0------------
B|-----3-1-3-----------3-1-3------
G|---------2---2~0---------0---0--
D|--------------------------------
A|-0---------------3--------------
E|---------×---------------×------


e|--3-3-3-3---2---2-2-2-2---0-----
B|----0-0-0---------3-3-3---------
G|----0-0-0---------2-2-2---------
D|--------------0-----------------
A|--------------------------------
E|-3------×-------------×---------

e|---0---------------0------------
B|-----3-1-3-----------3-1-3------
G|---------2---2~0---------0---0--
D|--------------------------------
A|-0---------------3--------------
E|---------×---------------×------


e|--3-3-3-3---2---2-2-2-2---0-----
B|----0-0-0---------3-------------
G|----0-0-0---------2-------------
D|--------------0-----------------
A|--------------------------------
E|-3------×-----------------------



Verse 1:]     [Куплет 1:] 
 Am             C         G
Воспряв от сна, среди руин 
           D                  Am
Над слоем пепла – чую едкий дым 
       C                   G    D
И химикат жжет каждый вздох 
 Am      C              
Я гибну и рождаюсь вновь 
 G                D            
Я заплатил сполна и смыл кровь
 Am     C             G 
Это мой апокалипсис — уоу 

[Pre-Chorus:]     [Пред-припев:] 
 D.            Am         C
Воспряв от сна, я ощущаю как, 
 G              D
В моем сердце растаял мрак 
 Am             C
Наступает время, мое время 
 G              D
Наступает время, мое время 
[Chorus:]     [Припев:]      
 Am    C          G           
Оуоуоу, оуоуоу — я радиоактивен, 
 D
радиоактивен.
 Am    C          G           
Оуоуоу, оуоуоу — я радиоактивен, 
 D
РАДИОАКТИВЕН
 
[Verse 2:]     [Куплет 2:] 

Окрасив флаг, сменив цвета 
И моя революция начата 
И красный тон сейчас на мне — уоу. 
Я гибну и рождаюсь вновь 
Я заплатил сполна и смыл кровь 
Это мой апокалипсис — уоу 

[Pre-Chorus:]     [Пред-припев:] 

Воспряв от сна, я ощущаю как, 
В моем сердце растаял мрак 
Наступает время, мое время 
Наступает время, мое время 

[Chorus:]     [Припев:] 

Оуоуоу, оуоуоу — я радиоактивен, радиоактивен 
Оуоуоу, оуоуоу — я радиоактивен, радиоактивен 

[Bridge:]     [Бридж:] 

И я нашел, выход во тьме 
Солнечный свет, снова во мне 

[Pre-Chorus:]     [Пред-припев:] 

Воспряв от сна, я ощущаю как,
В моем сердце растаял мрак 
Наступает время, мое время 
Наступает время, мое время 

[Chorus:]     [Припев:]

Оуоуоу, оуоуоу — я радиоактивен, радиоактивен. 
Оуоуоу, оуоуоу — я радиоактивен, радиоактивен. 

Comments