Anything You Want

Artist: A Foot in Coldwater (English)
User: dfurn31
Duration: 130 seconds
Delay: 12 seconds
Chord names: Not defined
Abusive:
Comment: -

URL

Updated last time:
dfurn31,
October 4, 2018, 1:07 PM

Text

(Make Me Do) Anything You Want - A Foot in Coldwater


 D     D         ASus4
In the morning lights
 D/F#     ASus4   D
Feels so good, by me
 D       D       ASus4
It could be so right
 D/F#        ASus4  D
You and me, tonight


 D          ASus4           D/F#   ASus4
Make me do anything you want
 D          ASus4           D/F#   ASus4
Make me do anything you want


 D                ASus4
Work hard in the daytime
 D/F#     ASus4     D
For our dinner at night
 D                  ASus4
Comfort me at the right time
 D/F#     ASus4     D
Everything's gonna be alright


E----------------------------------------------------------|
B----------------------------------------------------------|
G----------------------------------------------------------|
D----7-7-7-7-7-7-9-----5-5-5-5-5-5-7-----------------7-----|
A--------------------------------------9-9-9-9-9-9-9-------|
E----------------------------------------------------------|


E-----------------------------------------|
B-----------------------------------------|
G-----------------------------------------|
D-----------------------------------------|
A---9----7-----------0--------------------|
E-------------10--------------------------|


 D           ASus4           D/F#   ASus4
Make me do anything you want
 D           ASus4           D/F#   ASus4
Make me be everything you want
 D           ASus4           D/F#   ASus4
Make me…

(FADE OUT)

Comments