Pain

Artist: RADIO TAPOK (Русский)
User: Yuriy Tunik
Duration: 130 seconds
Delay: 12 seconds
Chord names: Not defined
Abusive:
Comment: -

URL

Uploaded:
May 22, 2018, 9:12 AM

Text


E|------0-------0------0-------0--|
B|-------0--------------0---------|
G|---12------12-----12-------12---|
D|-14------13-----12-------11-----|
A|--------------------------------|
D|--------------------------------|

E|---0--------0--------0--------0---------------0-|
B|-----0-------0--------0--------0-------0--------|
G|--12-------12------12-------12------12---12-----|
D|14-------13------12-------11-----10-------------|
A|------------------------------------------------|
D|------------------------------------------------|

 D     A
Боль, без любви 
 D      G
Боль, жрет изнутри 
 D    A
Боль, от всего, 
         D                     G         B
Но лучше ощущать боль, чем совсем ничего 

 D          A
Устав, застряв в себе 
 D       G
Отдав себя судьбе 
 D        A
Дай же тебя обнять 
     D                    G    B
Покажу этот мир и ты должна понять…. 

 D        A
Когда съедает боль, 
 D           G
Грустно, пропал покой 
 D        A
Дай же себя обнять 
       D                   G    B
Как погаснет свет, ты должна понять…. 

E|--------------------------------------------------------|
B|--------------------------------------------------------|
G|---------4-5-4-2----------------------4-5-4-2----2------|
D|-2--2----x-x-x-x----5----0----2--2----x-x-x-x----2----0-|
A|-2--2----2-3-2-0----5----0----2--2----2-3-2-0----0----0-|
D|-2--2---------------5----0----2--2--------------------0-|

E|--------------------------------------------------------------|
B|--------------------------------------------------------------|
G|---------4-5-4-2------------------------------------11-12-11--|
D|-2--2----x-x-x-x----5----0----12-12-12-12----0--0----x--x--x--|
A|-2--2----2-3-2-0----5----0----10-10-10-10----0--0----9-10--9--|
D|-2--2---------------5----0----10-10-10-10----0--0-------------|

 E     G      D
Боль, без любви 
 E         G     D
Боль, жрет изнутри 
 E    G      D
Боль, от всего, 
         C                     D       A
Но лучше ощущать боль, чем совсем ничего 

E|-----0--------0--------0--------0--|
B|-------0-------0--------0--------0-|
G|---12--------12------12-------12---|
D|-14--------13------12-------11-----|
A|-----------------------------------|
D|-----------------------------------|

 D       A
Гнев и агония, 
      D         G
Все лучше чем грусть твоя 
 D          A
Верь мне и дай обнять 
       D                    G     B
Как погаснет свет , ты должна понять 

E|--------------------------------------------------------|
B|--------------------------------------------------------|
G|---------4-5-4-2----------------------4-5-4-2----2------|
D|-2--2----x-x-x-x----5----0----2--2----x-x-x-x----2----0-|
A|-2--2----2-3-2-0----5----0----2--2----2-3-2-0----0----0-|
D|-2--2---------------5----0----2--2--------------------0-|

E|--------------------------------------------------------------|
B|--------------------------------------------------------------|
G|---------4-5-4-2------------------------------------11-12-11--|
D|-2--2----x-x-x-x----5----0----12-12-12-12----0--0----x--x--x--|
A|-2--2----2-3-2-0----5----0----10-10-10-10----0--0----9-10--9--|
D|-2--2---------------5----0----10-10-10-10----0--0-------------|

 E     G      D
Боль, без любви 
 E         G     D
Боль, жрет изнутри 
 E    G      D
Боль, от всего, 
         C                     D       A
Но лучше ощущать боль, чем совсем ничего 

 E     G      D
Боль, без любви 
 E         G     D
Боль, жрет изнутри 
 E    G      D
Боль, от всего, 
         C                     D       
Но лучше ощущать боль, лучше чем ничего, 
 A          D
Ощущать ту боль! 

E|-----------------------------------------------|
B|-----------------------------------------------|
G|11-12-11-12-11-12-11-12-11--5-5-5-5--7-7-7-7---|
D|-9--9--9--9--9--9--9--9--9--5-5-5-5--7-7-7-7---|
A|----------------------------3-3-3-3--5-5-5-5---|
D|-----------------------------------------------|

 E
Я знал, я знал, я знал, я знал, 
     C       D
У тебя есть раны 
 E
Я знал, я знал, я знал, я знал, 
       C        D
Но сдаваться рано 
 E
Пойми, пойми, пойми, пойми, 
       C      D
Я всегда с тобою 
 E
Скорей же утоли, скорей 
      C       D
Нашу жажду боли 

E|--------------------------------------------------------|
B|--------------------------------------------------------|
G|---------4-5-4-2----------------------4-5-4-2----2------|
D|-2--2----x-x-x-x----5----0----2--2----x-x-x-x----2----0-|
A|-2--2----2-3-2-0----5----0----2--2----2-3-2-0----0----0-|
D|-2--2---------------5----0----2--2--------------------0-|

E|--------------------------------------------------------------|
B|--------------------------------------------------------------|
G|---------4-5-4-2------------------------------------11-12-11--|
D|-2--2----x-x-x-x----5----0----12-12-12-12----0--0----x--x--x--|
A|-2--2----2-3-2-0----5----0----10-10-10-10----0--0----9-10--9--|
D|-2--2---------------5----0----10-10-10-10----0--0-------------|

 E     G      D
Боль, без любви 
 E         G     D
Боль, жрет изнутри 
 E    G      D
Боль, от всего, 
         C                     D       A
Но лучше ощущать боль, чем совсем ничего 

 E     G      D
Боль, без любви 
 E         G     D
Боль, жрет изнутри 
 E    G      D
Боль, от всего, 
         C                     D 
Но лучше ощущать боль, лучше чем ничего, 
 C                   D
Ощущать боль, лучше чем ничего 
 A          D
Ощущать ту боль!

Comments