Listen To Your Heart

Artist: Roxette (English)
User: djw
Duration: 141 seconds
Delay: 8 seconds
Chord names: Default
Abusive:
Comment: -

URL

Updated last time:
djw,
August 20, 2017, 12:00 AM

Text

Capo 2
    Am        F        G    Am 
e|------------3--1--0------------|
B|-----0--1------------3--1-3/5--|
G|-----2--2----------------------|
D|-------------------------------|
A|--0-----------------------0----|
E|------------1--------3---------|

   Am           F      G   Am 
|-------3p0------------------------------|
|--0h1------3p1------0h3---0h1-1p0-------|
|---------------2------------------2-----|
|---------------3------------------------|
|--0-----------------------0-------------|
|---------------1----0h3-----------------|

   Am        F        G    Am 
|------------3--1--0------------|
|-----0--1------------3--1-3/5--|
|-----2--2----------------------|
|-------------------------------|
|--0-----------------------0----|
|------------1--------3---------|

   Am           F        Dm  Dm 
|-------3p0------------------|
|--0h1------3p1--------1-3---|
|---------------2----2---2---|
|---------------3--------0---|
|--0---------------------0---|
|---------------1------------|

 Am               F               G            Am 
 I know there's something in the wake of your smile.
 Am       F               G            Am 
 I get a notion from the look in your eyes, yea.
 Am              F             G           Am 
 You've built a love but that love falls apart.
                       F    F           Dm   Dm 
 Your little piece of heaven turns too dark.

                 Am  F           C           G 
 Listen to your heart when he's calling for you.
                 Am  F                 C            G 
 Listen to your heart there's nothing else you can do.
           C                G        F            C 
 I don't know where you're going and I don't know why,
                     Am  F      G    G             
 but listen to your heart before you tell him goodbye.

   Am        F        G    Am 
|------------3--1--0------------|
|-----0--1------------3--1-3/5--|
|-----2--2----------------------|
|-------------------------------|
|--0-----------------------0----|
|------------1--------3---------|

   Am           F      G   Am 
|-------3p0------------------------------|
|--0h1------3p1------0h3---0h1-1p0-------|
|---------------2------------------2-----|
|---------------3------------------------|
|--0-----------------------0-------------|
|---------------1----0h3-----------------|

 Am             F              G             Am 
 Sometimes you wonder if this fight is worthwhile.
 Am            F               G           Am 
 The precious moments are all lost in the tide, yea.
 Am               F              G          Am 
 They're swept away and nothing is what it seems,
                  F     F        Dm     Dm 
the feeling of belonging to your dreams.

                 Am  F           C           G 
 Listen to your heart when he's calling for you.
                 Am  F                 C            G 
 Listen to your heart there's nothing else you can do.
           C                G        F            C 
 I don't know where you're going and I don't know why,
                     Am  F      G    G            D    
 but listen to your heart before you tell him goodbye.


 D               D           D         D 
 And there are voices that want to be heard.
 Bm         Bm             Bm              Bm 
 So much to mention but you can't find the words.
 A             A          G              G 
 The scent of magic, the beauty that's been
 A              A     B        B  
 when love was wilder than the wind.

               C#m  A          E           B 
Listen to your heart when he's calling for you
               C#m   A                E            B 
Listen to your heart, there's nothing else you can do
        E                   B       A            E 
I don't know where you're going and I don't know why,
                   C#m  A   B                    C#m 
but listen to your heart before you tell him goodbye.


Comments