Горизонт

Artist: Алиса (Русский)
User: Атлантъ
Duration: 180 seconds
Delay: 20 seconds
Chord names: Not defined
Abusive:
Comment: -

URL

Uploaded:
March 1, 2017, 7:36 PM

Text

E|---------12----------|
B|-7---7------12----12-| 2 - Проигрыш 1
G|---7---7-------12----|

E|-8-6-5-6-5-----------6-5--8-6-5-----|
B|-----------8-6-5-6-8----------------| - Проигрыш 2
G|--------------------------------5h7-|

D|--------------------------5-4-2-0-2---|
A|------------------5-4-0---------------| 2 - Проигрыш 3
E|-0---0-2-3---2-3-5--------------------|

 Em         Am          C       D         Em
На моём горизонте снег белый до боли в глазах,
           Am        C     D         Em
Белый ветер белой земли - мёртвая полоса.
 Am              Em               Bm
Я иду навстречу теплу - это так нужно мне,
 Em              Am     C       D         Em
Я иду навстречу теплу, чтобы вернуться к зиме.

 Em         Am      C       D         Em
На моем горизонте ночь, звездная кутерьма
               Am          C       D         Em
Млечный дым романтических звезд, сводит меня с ума
 Am              Em               Bm
Я иду на встречу заре, я так этому рад
 Em              Am        C       D         Em
Я иду на встречу заре, чтобы снова увидеть закат

 Em          Am      C       D         Em
На моём горизонте берег полный ненужных забот,
            Am    C          D     Em
В городах суета, омут, водоворот.
 Am           Em              Bm
И я опять ухожу в море, полный вперёд.
 Em           Am               C       D       Em
И я опять ухожу в море, чтобы снова вернуться в порт.

 Bm         Am                Bm        Am
 Странная игра, через туманы, леса и поля
 Bm          Am   C       D
 Лежит мой путь, я хочу отдохнуть
 Bm                  Am     Bm                 Am
Сквозь перекрёстки дорог, своей землёй не чувствуя ног,
 Bm      Am          Em
Меня несёт на горизонт!

 Em            Am              C           D       Em
Я всё иду и иду своей дорогой, но дорогам приходит конец,
 Em               Am             C       D       Em
И я уверен, что когда-нибудь, я дойду до конца наконец.
 Am                      Em              Bm
Тогда я уйду по лунному тракту - прошлого не вернуть,
 Em              Am         C       D       Em
Я уйду по лунному тракту, чтобы продолжить путь.

 Bm         Am                Bm        Am
 Странная игра, через туманы, леса и поля
 Bm          Am   C       D
 Лежит мой путь, я хочу отдохнуть
 Bm                  Am     Bm                 Am
Сквозь перекрёстки дорог, своей землёй не чувствуя ног,
 Bm      Am          Em
Меня несёт на горизонт!

E|---------12----------|
B|-7---7------12----12-| 2 - Проигрыш 1
G|---7---7-------12----|

E|-8-6-5-6-5-----------6-5--8-6-5-----|
B|-----------8-6-5-6-8----------------| - Проигрыш 2
G|--------------------------------5h7-|

D|--------------------------5-4-2-0-2---|
A|------------------5-4-0---------------| 2 - Проигрыш 3
E|-0---0-2-3---2-3-5--------------------|

Comments

March 1, 2017, 7:37 PM
Немного запутался пока добавлял, могут быть ошибки