With These Two Hands

Artist: Bon Jovi (English)
User: tresmilbert28
Duration: 130 seconds
Delay: 12 seconds
Chord names: Not defined
Abusive:
Comment: -

URL

Uploaded:
October 29, 2016, 4:47 AM

Text

With These Two Hands – What About Now
By Bon Jovi


Intro

 Em - C - G - D 
 Em - C - G - D 

        Em              C 
I could roll the dice
    G                 D 
And give you ten good reasons
        Em             C 
I could break the ice
    G                  D 
And pick up the broken pieces

        Em                  C 
I could wave hello, I could raise a glass,
        G                    D 
I could blow a kiss, I could kick your ass
         Am                   C 
We could take it all apart or hold it all together

     G                     Em 
With these two hands I can tear down walls
      Am                    C 
I can build a bridge, I can break my fall
     G                     Em 
With these two hands I can pray or fight
      Am                    C 
I can hold the torch, I can shine a light
               Em       C       G      D 
With these two hands

        Em               C 
I could strike a match
     G                 D 
That sets the world on fire
       Em                C 
Hold a grain of sand
        G            D 
Till it turns into a diamond

        Em                      C 
I could plant the seed, I could flip that switch,
         G                      D 
Make the sign of peace, I could make a fist
             Am                C 
Oh, we could make this hurt or we could make it better

     G                     Em 
With these two hands I can tear down walls
      Am                    C 
I can build a bridge, I can break my fall
     G                     Em 
With these two hands I can pray or fight
      Am                    C 
I can hold the torch, I can shine a light
               Em 
With these two hands

  Solo: Em - C - G - D (x2)

        or
  Em               C                  G                    D 
|----------------------------------------------------------------------------|
|----------------------------------------------------10-12-10-10-10-13-13-12-|
|-9-9-9-9-9-11-12--9-9-9--11-11-12----12-12-12-12-12-------------------------|
|----------------------------------------------------------------------------|
|----------------------------------------------------------------------------|
|----------------------------------------------------------------------------|
                                   (x2)

 Em 
Wipe the teardrops from your eyes
      Am 
Reach up until we touch the sky
 Em 
Free to dream and make it true
    Am 
No, there ain't nothing we can't do
 C 
Oh, there ain't nothing we can't do


     G                     Em 
With these two hands I can tear down walls
      Am                    C 
I can build a bridge, I can break my fall
     G                     Em 
With these two hands I can pray or fight
      Am                    C 
I can hold the torch, I can shine a light
               Em 
With these two hands

  Solo: Em - C - G - D (x2)

        or
  Em                C                 G                    D 
|----------------------------------------------------------------------------|
|----------------------------------------------------10-12-10-10-10-13-13-12-|
|-9-9-9-9-9-11-12--9-9-9--11-11-12----12-12-12-12-12-------------------------|
|----------------------------------------------------------------------------|
|----------------------------------------------------------------------------|
|----------------------------------------------------------------------------|
                                   (x2)

 Em 
Wipe the teardrops from your eyes
      Am 
Reach up until we touch the sky
 Em 
Free to dream and make it true
    Am 
No, there ain't nothing we can't do
 C                                E 
Oh, there ain't nothing we can't do





Comments