Sayo

Artist: Silent Sanctuary (Tagalog)
User: tresmilbert28
Duration: 130 seconds
Delay: 12 seconds
Chord names: Not defined
Abusive:
Comment: -

URL

Uploaded:
October 27, 2016, 6:27 AM

Text

Sayo - Silent Sanctuary (Monodramatic Album 2013)
Standard Tuning: EADGBE 

Chords used:

  F    C    A    D 
e|1----0----0----2-|
B|1----1----2----3-|
G|2----0----2----2-|
D|3----2----2----0-|    
A|X----3----X----X-|
E|X----X----X----X-|


[Intro]

(Piano Version)

e|------------------------------------|
B|----------------------13--13-----10-|
G|--10--10--10--12--12---------12-----|
D|---------------------------------7--|
A|--8---------------------------------|
E|------------------------------------|

e|------------------------------10-----|
B|----------------------13--13------10-|
G|--10--10--10--12--12-----------------|
D|----------------------------------7--|
A|--8----------------------------------|
E|-------------------------------------|


[Intro Chords]

 C  F 
 C  F 


[Verse 1]

     C         F 
Minsan oo minsan hindi
     C         F 
Minsan tama minsan mali
     C         F 
Umaabante, umaatras
     C         F 
Kilos mong namimintas
     F          A 
Kung tunay nga ang pag-ibig mo
     C          F        
Kaya mo bang isigaw
     C          F    C 
Iparating sa mundo


[Chorus]

     F        A 
Tumingin sa'king mata 
     C        D 
Magtapat ng nadarama
     F        A 
Di gusto ika'y mawala
     C           F 
Dahil handa akong ibigin ka
     C                  C (Let Ring) 
Kung maging tayo sa'yo na ang puso ko


[Instrumental]

 C   F 
 C   F 


[Verse 2]

       C          F 
Walang ibang tatanggapin
       C          F 
Ikaw at ikaw parin
       C          F 
May gulo ba sa iyong isipan
       C          F 
Di tugma sa nararamdaman
       F                    A - C    
Kung tunay nga ang pag-ibig mo


[Chorus]

     F        A 
Tumingin sa'king mata 
     C        D 
Magtapat ng nadarama
     F        A 
Di gusto ika'y mawala
     C           F 
Dahil handa akong ibigin ka
     C             C (Let ring)     
Kung maging tayo


[Bridge]

     F           A 
Kaylangan ba kitang iwasan
     F               A 
Sa tuwing lalapit may paalam
     C          F 
Ibang anyo sa karamihan
     A                  C       F       D 
Iba rin pag tayo, iba rin pag tayo lang ah


[Chorus]

     F        A 
Tumingin sa'king mata 
     C        D 
Magtapat ng nadarama
     F        A 
Di gusto ika'y mawala
     C           F 
Dahil handa akong ibigin ka
     C            F      
Kung maging tayo
     C            F      
Kung maging tayo
     C            F 
Sa'yo na ang puso ko


[Outro]

 C - F 


[Violin/Cello Part]

e|--------------------|
B|---11--12--14-------|
G|--------------------|x4
D|--------------------|    
A|--------------------|
E|--------------------|

e|------------------------------------|
B|----------------------13--13-----10-|
G|--10--10--10--12--12---------12-----|
D|---------------------------------7--|
A|--8---------------------------------|
E|------------------------------------|

e|------------------------------10-----|
B|----------------------13--13------10-|
G|--10--10--10--12--12-----------------|
D|----------------------------------7--|
A|--8----------------------------------|
E|-------------------------------------|

Comments