Doble kara tab 4

Artist: Greyhoundz (Tagalog)
User: tresmilbert28
Duration: 130 seconds
Delay: 12 seconds
Chord names: Not defined
Abusive:
Comment: -

URL

Uploaded:
October 3, 2016, 2:14 PM

Text

LEGENDS
/-slide
h-hammer                      Try nyo po tong 1st tab ko!
p-pull                        mga around 90% accurate lng po toh!^^
PM-Palm Mute                  Tunning: Drop B 
x-mute sting                  bali Drop D then 3 steps pababa= Drop B^^
b-bend
^-artificial harmonic
^b-artificial harmonic bend
L-let it ring

Intro
C#|-------------------------------|\
G#|-------------------------------| \
 E |-------------------------------|  \
 B |-------7^-7^-8-----------------|   \
F#|-2/5-5---------7/8p7-7h8-------|    \
 B |-------------------------------|     \
                                         - repeat 3 times
C#|-------------------------------|     /
G#|-------------------------------|    /
 E |-----------------------7^b-----|   /
 B |----7^-7^-8--------------------|  /
F#|--5---------7h8-7-5--5---------| /
 B |-------------------------------|/
then
C#|-------------------------------|
G#|-------------------------------| 
 E |-------------------------------|  
 B |-------7^-7^-8-----------------|   
F#|-2/5-5---------7/8p7-7h8-------|    
 B |-------------------------------|     

C#|-------------------------------|     
G#|-------------------------------|    
 E |-------------------------------|   
 B |----7^-7^-8--------------------| 
F#|--5---------7h8-7-5------------| 
 B |-------------------------------|

Intro II
C#|-------------------------------|\                
G#|-------------------------------| \                
 E |-------------------------------|  \ repeat 3 times 
 B |-------------------------------|  /
F#|-------0-------0-----0---------| / \  
 B |-2h3-3-0-2h3-3-0-2h3-0---------|/   \
then                                    \ Repeat the whole 
C#|-------------------------------|     / thing twice or 3 times
G#|-------------------------------|    /  pakinggan nyo lng ^^
 E |-------------------------------|   /
 B |---------------7--8------------|
F#|-------0--0-0--7--8------------|   
 B |-2h3-3-0--0-0--7--8------------|
             PM   L  L
C#|---------------------------------------------------|
G#|---------------------------------------------------|
 E |---------------------------------------------------|  
 B |---------------------------------------------------| 
F#|--0-0-0--0-0--0-0-0--0-0---1-1-1--1-1--1-1-1--1-1--| 
 B |--0-0-0--0-0--0-0-0--0-0---1-1-1--1-1--1-1-1--1-1--|
    PM PM PM PM PM PM PM PM  PM PM PM PM PM PM PM PM

Verse:
C#|---------------------------------------------------|\
G#|---------------------------------------------------| \Ulitin nyo lng 
 E |---------------------------------------------------|  \ hanggang sa 
 B |---------------------------------------------------|  /Second Verse
F#|--0-0-0--0-0--0-0-0--0-0---1-1-1--1-1--1-1-1--1-1--| / 
 B |--0-0-0--0-0--0-0-0--0-0---1-1-1--1-1--1-1-1--1-1--|/
    PM PM PM PM PM PM PM PM  PM PM PM PM PM PM PM PM

Verse II
C#|---------------------------------------------------------------------|
G#|---------------------------------------------------------------------|
 E |---------------------------------------------------------------------|   
 B |------------------------------------------------------1--1-1-1---1^b--|  
F#|--0-0-0--0-0------2-2--0-0-0--2h3-2h3-0--1-1-1--0-0---1--1-1-1--1-----|
 B |--0-0-0--0-0--1h2-2-2--0-0-0--2h3-2h3-0--1-1-1--0-0---1--1-1-1-1------|
          PM PM                                   PM PM

Pre Chorus:
C#|-----------------------------------|\
G#|-----------------------------------| \ 
 E |-----------------------------------|  \  Repeat
 B |-------7--------8------------------|  / 3 times
F#|--0-0--7--7-7---8--2-2--2-3-2-3----| /
 B |--0-0--7--7-7---8--2-2--2-3-2-3----|/
   PM PM    PM PM    PM PM          
C#|----------------------|
G#|----------------------|
 E |----------------------|   
 B |-------7--------8-----|  
F#|--0-0--7--7-7---8-----|
 B |--0-0--7--7-7---8-----|
   PM PM    PM PM   

Chorus:
C#|-----------------------------------|\
G#|-----------------------------------| \ 
 E |-----------------------------------|  \  Re

Comments