Apoy

Artist: Greyhoundz (Tagalog)
User: tresmilbert28
Duration: 130 seconds
Delay: 16 seconds
Chord names: Not defined
Abusive:
Comment: -

URL

Uploaded:
October 3, 2016, 1:18 PM

Text

"APOY"BY:GREYHOUNDZ
                    transcribed by:freongang
               visit me at:freongang_81@yahoo.com
                    freongang_08@yahoo.com

                      
dropped D  USE THICK DIST.  
intro: (guitar riffs)X3     then proceed here
D|----------------------  ---------------------------------------|b
A|----------------------  ---------------------------------------|r
F|----------------------  -------------------3-3-3-3-6-6-6-6-5-5-|e
C|----------------------  -3-3-3-3-5-5-5-5-5-3-3-3-3-6-6-6-6-5-5-|a
G|-3-3-3-3-3-3-3-3-3-3--  -3-3-3-3-5-5-5-5-5-1-1-1-1-4-4-4-4-3-3-|k
D|-1-1-1-1-1-1-1-1-1-1--  -1-1-1-1-3-3-3-3-3---------------------|
 
intro: (bass riffs) X4
D|---------------------------------------------------|
A|---------------------------------------------------|
F|---------------------------------------------------|
C|---------------------------------------------------|
G|-------------------1-1-1-1--4-4-4-4--3-3-3-3-------|
D|-1-1-1-1--3-3-3-3----------------------------------|

 Tatalon ka na ba...
D|-------------------------------- ---------------------|
A|-------------------------------- ---------------------|
F|-------------------------------- -2-2---2-2---2-2-2-2-|
C|-5-5---5-5---5-5-5-5---5-5------ -2-2-x-2-2-x-2-2-2-2-|
G|-5-5-x-5-5-x-5-5-5-5-x-5-5-3-2-- -0-0-x-0-0-x-0-0-0-0-|
D|-3-3-x-3-3-x-3-3-3-3-x-3-3-3-2-- ---------------------|

 Lunod!...   X4
D|-------------------------------------------|
A|-------------------------------------------|
F|-------------------------------------------|
C|-------------------------------------------|
G|-4/3--3-3-x-3-3---4/3--3-3-x-3-3--4/3------|
D|-2/1--1-1-x-1-1---2/1--1-1-x-1-1--2/1------|

 Sunog lang ng sunog...  X4           then proceed here
D|---------------------------------| -----------------|
A|---------------------------------| -----------------|
F|---------------------------------| -----------------|
C|---------------------------------| -4-4--6-6—-9/8---|
G|---------------------------------| -2-2--4-4—-7/6---|
D|-3-3-3-3-3-3—7h6-7—-9h8----------| -----------------|
 Pm .. . . .. ….. . . .. . . . .. . . . . .

Kapit ng mahigpit...  X8
D|--------------------------------------|
A|--------------------------------------|
F|--------------------------------------|
C|--------------------------------------|
G|---6/5---6-6-6-6-----6/5--------------|
D|---4/3b--4-4-4-4-----4/3b--3b---------|

          X4
D|----------------------------------------|
A|----------------------------------------|
F|----------------------------------------|
C|--4-3--4-4-4-4----5-3--4-4-4-4----------|
G|--2-1--2-2-2-2----3-1--2-2-2-2----------|
D|----------------------------------------|

  Adlib:    X3 (do it fast)
D|-------------------------------------------|
A|-------------------------------------------|
F|---------9----------------------10---------|
C|-------8-----9---8---9--------9------------|
G|-7/9-9-----8---7---9-----9--7--------------|
D|-------------------------------------------|
   Pm...........................................
                  X2
D|---------------------------------------------------|
A|-------------------------10-------12-----9------11-|
F|--------11-------10----9-------11------8-----10----|
C|-----10--------9----10------12-------9-----11------|
G|--11--------10-------------------------------------|
D|---------------------------------------------------|
   Pm...........................................

D|-------------------------------------|
A|-------------------------------------|
F|-------------------------------------|
C|-3-3-3-3-4-4-4-4-5-5-5-5-4-4-4-------|
G|-3-3-3-3-4-4-4-4-5-5-5-5-4-4-4-------|
D|-1-1-1-1-2-2-2-2-3-3-3-3-2-2-2-------|
   
 Ba't ka ba nagpapasunog sa sarili mong apoy... X8
D|-------------------------------------|
A|-------------------------------------|
F|-------------------------------------|
C|-------------------------------------|
G|-2-2-2-3-3-3-4-4-4-7-7-7-6-6-6-------|
D|-0-0-0-1-1-1-2-2-2-5-5-5-4-4-4-------|

   Outro:


lyrics:

Tatalon ka na ba mula sa sinasakyang nagdala sa iyo sa taas para lang magpakalunod sa alin?
Sa bisyo o sa luho?
Bibitawan mo na ba paniniwalang nagdulot sayo ng saya para lang magpakabaliw...
Sa ano?
Sa pansamantalang aliw?

Sunog lang ng sunog!

Kapit ng mahigpit, kapatid

Huwag kang bumitaw.

Bat ka ba lumalayo sa mismong kadugong kailanman ay di ka iniwang nagluluksang magisa?
Nakalimutan mo na ba halaga nila?
Bat' ka ba sumusuko sa mga pagsubok na di mo naman ikamamatay?
Di ba dapat lalo kang tumitibay?

Sunog lang ng sunog!

Kapit ng mahigpit, kapatid

Huwag kang bumitaw.

Tulong! Pahingi ng gamot... Para huwag ng malito, kahit wala munang sagot.

Tulong! Pahingi ng gamot... Kahit panandaliang lunas, para man lang kumalma!

Bat ka ba nagpapasunog sa sarili mong apoy? X11
Bat ka ba nagpapasunog sa sarili mo!

Kapit ng mahigpit, kapatid

Huwag kang bumitaw...

Sunog lang ng sunog!

baryote

Comments