Apir day tab

Artist: Kamikazee (Tagalog)
User: tresmilbert28
Duration: 130 seconds
Delay: 12 seconds
Chord names: Not defined
Abusive:
Comment: -

URL

Updated last time:
robot@guitarsongs.club,
October 6, 2016, 11:52 PM

Text

Song:Apir Day
Album:Maharot
Artist:Kamikazee
Date Tabbed:April,2006
Guitar Tabber:Ryan Manongdo/16/m/Montalban Rizal
              forget_013@yahoo.com.ph(Friendster&YM)
              09229015724(Sun Cell)

kamikazee@yahoo.groups.com
www.rakista.com
www.brutalgrace.com

Gtr.Legends:
x  -  DEAD  STRING
~  - LET IT RING
.  - PALM MUTING
b  - BEND
/\ - SLIDE

Gtr.Tuning:Standard(Normal)

Intro prt.1
e|---------------------------|
B|-5-5-5-5----x-5-x-5-x-44---|
G|-6-6-6-6----x-5-x-5-x-55---|
D|---------------------------|
A|---------------------------|
E|---------------------------|
   . . . .      .   .   .. 

Intro prt.2
Gtr.1
e|-----------------------------------------|
B|-5555555-7777777-9999999-101010/121212---|
G|-6666666-7777777-9999999-101010/121212---|
D|-----------------------------------------|
A|-----------------------------------------|
E|-----------------------------------------|
   ....    ....    ....    ......

Gtr.2
e|--------------      ------------------------|
B|-5-7-5-77-5--- 3x   --10-10-9--10-10-9-12---| 2x
G|-------------- Then ------------------------|
D|--------------      ------------------------|
A|--------------      ------------------------|
E|--------------      ------------------------|


e|--------------------      ------------------5---|
B|--5-7-5--7/9-7--5-7- 3x   --5-7-5--7/9-7--5-----| 2x
G|-------------------- Then ----------------------|
D|--------------------      ----------------------|
A|--------------------      ----------------------|
E|--------------------      ----------------------|

Before Verse:
e|-----------------|
B|-----------------|
G|-----------------|
D|--9-7-6-7-6------|
A|-------------7---|
E|-----------------|

Verse 1:
Doon a amin sa sinkatuna...
e|----------------------------------------|
B|-55--77--99--77---55--77--9999--101010--|
G|-66--77--99--77---66--77--9999--101010--|
D|----------------------------------------|
A|----------------------------------------|
E|----------------------------------------|
  ..  ..  ..  ..   ..  ..  ....  . . .

Chorus:Play intro prt.2
Hawak hawak kamay...

Verse 2:Play verse 1
Nandito na ang buong barkada...

Repeat Chorus:

Apir apir day tayo...
Gtr.1:
e|-----------------------------------------|
B|-5555555-7777777-9999999-101010/121212---|
G|-6666666-7777777-9999999-101010/121212---|
D|-----------------------------------------|
A|-----------------------------------------|
E|-----------------------------------------|
   ....    ....    ....    ......

Gtr.2:
e|--------------------      ------------------5---|
B|--5-7-5--7/9-7--5-7- 3x   --5-7-5--7/9-7--5-----| 2x
G|-------------------- Then ----------------------|
D|--------------------      ----------------------|
A|--------------------      ----------------------|
E|--------------------      ----------------------|

Bridge prt.1:
Both Gtrs.
e|------------------   ----------------|
B|-5-5-5-5-5-5-5-5--   ----------------|
G|-6-6-6-6-6-6-6-6--   ----------------|
D|------------------   --9-7-6-7-6-----|
A|------------------   ------------7---|
E|------------------   ----------------|
   . . . . . . . .

Gtr.1
e|--3~--1~--2~--1~---|
B|--3~--1~--2~--1~---|
G|-------------------|
D|-------------------|
A|-------------------|
E|-------------------|

Gtr.2
e|-----------------------------------------------------------------|
B|--4h5~--6-8-9-7-6-5-5/6\5-----9-10-9-10--9h12-10-9-7-5-6-6h8-6---|
G|-----------------------------------------------------------------|
D|-----------------------------------------------------------------|
A|-----------------------------------------------------------------|
E|-----------------------------------------------------------------|

e|--------------------------      ---------------------------------------|
B|--10-9-10-9-9h12-10-9-10~- 2x   --6-5-7-6-6h8-6-5-6-8h10-8-6-5-5/6\5---|
G|-------------------------- Then ---------------------------------------|
D|--------------------------      ---------

Comments