Dreaming with a broken heart

Artist: Joseph Vincent (English)
User: tresmilbert28
Duration: 130 seconds
Delay: 12 seconds
Chord names: Not defined
Abusive:
Comment: -

URL

Uploaded:
February 13, 2016, 6:23 AM

Text

Dreaming With  A  Broken Heart Tab
Joseph Vincent





-------------------------------------------------------------------------------
       Dreaming With a Broken Heart- John Mayer(Joseph Vincent Cover)
-------------------------------------------------------------------------------
Tabbed by: Alphie R.

Tuning:Standard

Pattern 1:
e|------3-------------3-----------4----------4-------------------------------|
B|----3---3---------5---3-------5---5------5---5-----------------------------|
G|--4-------------6-----------5----------5-----------------------------------|
D|---------------------------------------------------------------------------|
A|---------------------------------------------------------------------------|
E|---------------------------------------------------------------------------|



Intro: Pattern 1 (2x)
Verse: Pattern 1 (4x)
"wondering why...":  Em   D/F#   G   Em7   Cadd9  (2X)
"no she's not...":  Em 
"cause she's...":  Cadd9   Em7   A#   D/F#   G 

Interlude:  G   Dadd9   Cadd9  (2x)

Verse:  G   Dadd9   Cadd9  (4x)
"wondering could...":  Em   D/F#   G   Em7   Cadd9  (2X)
"no she can't...":  Em 
"cause she's...":  Cadd9   Em7   A#   D/F#  
Interlude:  G   Dadd9   Cadd9 
"cause she's...": Em...  Cadd9   Em7   A#   D/F#   G 

Joseph Vincent's Official Website: http://www.josephvincentmusic.com/
John Mayer - Dreaming With  A  Broken Heart Lyrics (Chord)
Artis : John Mayer 
Judul : Dreaming With  A  Broken Heart Lyrics (Chord)

Note: It sounds better if you play the  A7  and  C  as notated below:

 G   A7   C   G/B   G/C 
e|----3----3----3----3----3----|
B|----3----2----1----3----3----|
G|----0----0----0----0----0----|
D|----0----2----2----0----0----|
A|----2---------3----2----3----|
E|----3--------------X----X----|

Intro (played with piano):  G   A7   C 


The Intro can be picked out like this as well:

 G   A7   C   C 
e|-------3---------3-------3-------3----|
B|----------3--------2-------1-------1--|
G|---------------0----------------------|
D|-----0-------2---------2-------2------|
A|---------------------3-------3--------|
E|---3----------------------------------|

 G   A7   C 
When you're dreaming with a broken heart

 G   A7   C 
The waking up is the hardest part

 G   A7   C 
You roll outta bed and down on your knees

 G   A7   C 
And for the moment you can hardly breathe


 G   D   G   G/B   G/C 
Wondering was she really here?

 G   D   G   G/B   G/C 
Is she standing in my room?

 G   G   G/B   G/C  
 G/B   G 
No she's not, 'cause she's gone, gone, gone, gone, gone....


 G   A7   C  (2x's)


 G   A7   C 
When you're dreaming with a broken heart

 G   A7   C 
The giving up is the hardest part

 G   A7   C 
She takes you in with her crying eyes

 G   A7   C 
Then all at once you have to say goodbye

 G   D   G   G/B   G/C 
Wondering could you stay my love?

 G   D   G   G/B   G/C 
Will you wake up by my side?


 G   G   G/B   G/C  
 G/B   G 
No she can't, 'cause she's gone, gone, gone, gone, gone....


 G   F   C   G  (2x's)


Chords during solo:  G   A7   C 


 G   A7   C 
Now do I have to fall asleep with roses in my hands

 G   A7   C 
Do I have to fall asleep with roses in my hands?

 G   A7   C 
Do I have to fall asleep with roses in my hands?

 G   A7   C 
Do I have to fall asleep with roses in my, roses in my hands?

 G   D   G   G/B   G/C 
Would you get them if i did?

 G   G   G/B   G/C  
 G/B   G 
No you won't, 'cause you're gone, gone, gone, gone, gone....

 G   A7   C  (2x's)

 G   A7   C 
When you're dreaming with a broken heart

 G   A7   C   C 
The waking up is the hardest part

Comments