Bloodhost tab

Artist: Scar the Martyr (English)
User: tresmilbert28
Duration: 130 seconds
Delay: 12 seconds
Chord names: Not defined
Abusive:
Comment: -

URL

Uploaded:
February 10, 2016, 5:30 PM

Text

Blood Host Tab
Scar The Martyr
102809
Alright, this song is played on a 7-string in Drop  Gb  tuning, the notes are Gb-Db-Gb-B-E-Ab- Db 


Intro

             Guitar 1(listen to song to know exact amount of time played)
|-------------------------------------------------------------------------------------|
|-------------------------------------------------------------------------------------|
|-------------------------------------------------------------------------------------|
|--7-7-7-7-7-7-7-7-7-7-7-7-7-7-7-7-7-7-7-7-7-7-7-7-7-7-7-7-7-7-7-7-7-7-7-7------------|
|-------------------------------------------------------------------------------------|
|-------------------------------------------------------------------------------------|
|-------------------------------------------------------------------------------------|

             Guitar 2 at 00:12-00:40
|-------------------------------------------------------------------------------------|
|-------------------------------------------------------------------------------------|
|-------------------------------------------------------------------------------------|
|-------------------------------------------------------------------------------------|
|-------------------------------------------------------------------------------------|
|-------------------------------------------------------------------------------------|
|--0-0-0-0-0-0-0-0-0-0-0-0-12-12-12-12------------------------------------------------|

        Guitar 1 at 00:27-00:40
|--------------------------------------------------------------------------------------|
|--------------------------------------------------------------------------------------|
|--------------------------------------------------------------------------------------|
|--------------------------------------------------------------------------------------|
|--------------------------------------------------------------------------------------|
|--------------------------------------------------------------------------------------|
|--0-------------------------------12--------------------------------------------------|

        Verse Both Guitars

|--------------------------------------------------------------------------------------|
|--------------------------------------------------------------------------------------|
|--------------------------------------------------------------------------------------|
|--------------------------------------------------------------------------------------|
|--------------------------------------------------------------------------------------|
|--------------------------------------------------------------------------------------|
|--0-0-0-0-000-3-1-5-4-1-3--0-1-0-0-0000000-1b-----------------------------------------|

        Pre-Chorus is just the Intro again, except both guitars play their parts at the same time

        Verse

        Pre-Chorus

        Chorus part 1 Both Guitars

|-------------------------------------------------------------------------------------|
|-------------------------------------------------------------------------------------|
|-------------------------------------------------------------------------------------|
|--7-7-7-7-7-7-7----------------------------------------------------------------------|
|--7-7-7-7-7-7-7----------------------------------------------------------------------|
|--5-5-5-5-5-5-5----------------------------------------------------------------------|
|----------------5-6-7--1-4-1-4-1--5-7-5-7--------------------------------------------|

       Chorus part 2 Both Guitars

|---------------------------------------------------------------------------------------|
|---------------------------------------------------------------------------------------|
|---------------------------------------------------------------------------------------|
|--7-7-7-7-7-7-7-5-5-5-5-5-5-5----------------------------------------------------------|
|--7-7-7-7-7-7-7-5-5-5-5-

Comments