Bloodhost

Artist: Scar the Martyr (English)
User: tresmilbert28
Duration: 130 seconds
Delay: 12 seconds
Chord names: Not defined
Abusive:
Comment: -

URL

Uploaded:
February 8, 2016, 10:35 AM

Text

Blood Host 
Scar The Martyr
By:milbert


Alright, this song is played on a 7-string in Drop  Gb  tuning, the notes are Gb-Db-Gb-B-E-Ab- Db 


Intro

             Guitar 1(listen to song to know exact amount of time played)
|-------------------------------------------------------------------------------------|
|-------------------------------------------------------------------------------------|
|-------------------------------------------------------------------------------------|
|--7-7-7-7-7-7-7-7-7-7-7-7-7-7-7-7-7-7-7-7-7-7-7-7-7-7-7-7-7-7-7-7-7-7-7-7------------|
|-------------------------------------------------------------------------------------|
|-------------------------------------------------------------------------------------|
|-------------------------------------------------------------------------------------|

             Guitar 2 at 00:12-00:40
|-------------------------------------------------------------------------------------|
|-------------------------------------------------------------------------------------|
|-------------------------------------------------------------------------------------|
|-------------------------------------------------------------------------------------|
|-------------------------------------------------------------------------------------|
|-------------------------------------------------------------------------------------|
|--0-0-0-0-0-0-0-0-0-0-0-0-12-12-12-12------------------------------------------------|

        Guitar 1 at 00:27-00:40
|--------------------------------------------------------------------------------------|
|--------------------------------------------------------------------------------------|
|--------------------------------------------------------------------------------------|
|--------------------------------------------------------------------------------------|
|--------------------------------------------------------------------------------------|
|--------------------------------------------------------------------------------------|
|--0-------------------------------12--------------------------------------------------|

        Verse Both Guitars

|--------------------------------------------------------------------------------------|
|--------------------------------------------------------------------------------------|
|--------------------------------------------------------------------------------------|
|--------------------------------------------------------------------------------------|
|--------------------------------------------------------------------------------------|
|--------------------------------------------------------------------------------------|
|--0-0-0-0-000-3-1-5-4-1-3--0-1-0-0-0000000-1b-----------------------------------------|

        Pre-Chorus is just the Intro again, except both guitars play their parts at the same time

        Verse

        Pre-Chorus

        Chorus part 1 Both Guitars

|-------------------------------------------------------------------------------------|
|-------------------------------------------------------------------------------------|
|-------------------------------------------------------------------------------------|
|--7-7-7-7-7-7-7----------------------------------------------------------------------|
|--7-7-7-7-7-7-7----------------------------------------------------------------------|
|--5-5-5-5-5-5-5----------------------------------------------------------------------|
|----------------5-6-7--1-4-1-4-1--5-7-5-7--------------------------------------------|

       Chorus part 2 Both Guitars

|---------------------------------------------------------------------------------------|
|---------------------------------------------------------------------------------------|
|---------------------------------------------------------------------------------------|
|--7-7-7-7-7-7-7-5-5-5-5-5-5-5----------------------------------------------------------|
|--7-7-7-7-7

SCAR THE MARTYR LYRICS
"Blood Host"

In the shade, darkened gaze, every color, it's dismay
Arid sky, it turns to grey, threshold of desertion.
Crimson shards, take their shape, to infect each passageway
Penetrate them into space, There is no survival

With every word you say, the spew that you create
and every smile you fake, you only want to suck me dry
With every breath I have, until there's nothing left
I'm gonna live until you suffocate and watch you die
(Contents Under Pressure)

Recreate, Purge the hate, internal thoughts manipulate
Null & void, it turns to waste, submission: a diversion
Stark & stale, it rots away, like the sickness it creates
Left hand path that leads the way, record all our transgressions

With every word you say, the spew that you create
and every smile you fake, you only want to suck me dry
With every breath I have, until there's nothing left
I'm gonna live until you suffocate and watch you die

You've dealt the damage done,
You make your living on the blood of another host
Or maybe not enough...
You're seeking refuge in the arms of another ghost [x2]
(Contents Under Pressure) [x2]

You're so predictable, a parasite of sorts
You build me up to bring me down
You'll never watch me fall, the boughs of flesh is all
You'll ever claim to take this time. [x2]

You suffer well, it serves you well
You'll burn in hell, and perish in the dust
DUST [x4]

With every word you say, the spew that you create
and every smile you fake, you only want to suck me dry
With every breath I have, until there's nothing left
I'm gonna live until you suffocate and watch you die

You've dealt the damage done,
You make your living on the blood of another host
Or maybe not enough...
You're seeking refuge in the arms of another ghost [x4]

Comments