P.I ( philippine island )

Artist: Siakol (Tagalog)
User: tresmilbert28
Duration: 130 seconds
Delay: 12 seconds
Chord names: Not defined
Abusive:
Comment: -

URL

Updated last time:
Alexander Suslov,
February 7, 2016, 9:11 AM

Text

Siakol - P.I. ( PHILIPPINE ISLAND )

ALBUM : TROPA

TABBED BY : Sarjhon J. Ojenal

--------SANA_MAGUSTUHAN_NYO_TO----------

Kapa ko lang tong solo kaya di ko alam kung 100% correct yan pero para sakin
100% correct yan sakin...


INTRO: C--

I (C--Am--F-G-C--)
Narito ako sa isang lugar
na hindi 'ko maintindihan
Nakikipagsapalaran sa buhay
na ang hantungan ay kawalan.

REFRAIN: (F-G-C-Am-F-G-C--)
De numero ang galaw ng tao,
bawat gawin ay may presyo
Oh, narito ako sa isang lugar
na hindi ko maintindihan.

II
Daing ng tao'y 'di pinapansin
nililipad ng hangin
Pagkain sa araw-araw hindi malaman
pa'no pagkakasyahin.

REFRAIN II:
Lalong yumayaman kapag mayaman,
lalong naghihirap kapag mahirap
Oh, narito ako sa isang lugar
na hindi ko maintindihan.

CHORUS: (F--C--F--G--F--C--F--G--)
Walang ginagawa
ang mga walang awa
Walang nagagawa kahit pa
ngumawa, magmakaawa,
Bumaha ng mga luha--- haaa!
Bumaha ng mga luha--- haaa!

III
Narito ako sa isang lugar
ng mga taong tumatakas
Naghahanap ng swerte sa iba
dahil dito'y wala ng bukas.

REFRAIN III:
Kakarampot na sasahurin,
sa sobrang mahal ng mga bilihin
Oh, narito ako sa isang lugar
na hindi ko maintindihan.

 AD  LIB : C--Am--F--G--C--F--G--C--Am--F--G--C--


E||---------------------------|-------------------|----------------------|
B||------------------5-5-5----|-6-6-6-------------|----------------------|
G||---5-5----7-7-7------------|-------------------|---5-5-5------7-7-7---|
D||---------------------------|-----------7-7-----|----------------------|
A||---------------------------|-------------------|----------------------|
E||---------------------------|-------------------|----------------------|


E||---------------------------|-------------------|----------------------|
B||--5-5-5h6------------------|--5h6---------8-8--|----6h8---------------|
G||-------------5-5----7-7----|---------7-7-------|----------------------|
D||---------------------------|-------------------|----------------------|
A||---------------------------|-------------------|----------------------|
E||---------------------------|-------------------|----------------------|


E||---------------------------|-------------------|----------------------|
B||-------------------5-5-5---|--6-6----8---------|---6-6-6------8---6---|
G||---5-5-----7-7-7-----------|-------------------|----------------------|
D||---------------------------|-------------------|----------------------|
A||---------------------------|-------------------|----------------------|
E||---------------------------|-------------------|----------------------|


E||---------------------------|-------------------|----------------------|
B||---5-6------8---8-8-8------|--6-5-6------------|---------8-----6-6----|
G||---------------------------|------------5------|----------------------|
D||---------------------------|-------------------|----------------------|
A||---------------------------|-------------------|----------------------|
E||---------------------------|-------------------|----------------------|


E||---------------------------|-------------------|----------------------|
B||---5-----------------------|----------5h6------|----------------5-5-5-|
G||--------7---------5--------|----5h7------------|--5-5---7-7-7---------|
D||----------7-----7---7------|-------------------|----------------------|
A||---------------------------|-------------------|----------------------|
E||---------------------------|-------------------|----------------------|

E||---------------------------|-------------------|----------------------|
B||----6-6--6h8---------------|-----------6---5---|----------------------|
G||-----------------5---5-5-5-|----5-5------------|----7--5------5---\5--|
D||---------------------------|-------------------|----------------------|
A||---------------------------|-------------------|----------------------|
E||---------------------------|-------------------|----------------------|

(Repeat CHORUS)

(Repeat I)

REFRAIN: (F-G-C-Am-F-G-C-Am-F-G-C--)
De numero a

Comments