Никогда никому

Artist: Бабкин Сергей (Russian)
User: Алексей Брагин
Duration: 130 seconds
Delay: 12 seconds
Chord names: Not defined
Abusive:
Comment:
Вступление: 4 раза

e|----------7------------|
B|---7--7---7--7--7----|
G|-----7--7---7--7------|
D|-0----------------------|
A|-------------------------|
E|7-----------------------|

Перебором всю песню:

e|----------7-------------|---------7----7------|----------3-----------|--------------------10-------|
B|---7--7---7--7--7----|---7--7---7----7----|---3--3-----3--3--3--|---3--3----------10-10----|
G|-----7--7---7--7------|----7--7---7----7--|-----4--4----4--4----|-----4--4------11-----11--|
D|-0---------------------|-0--------------------|-0--------------------|-0---------------------------|
A|------------------------|----------------------|-----------------------|------------------------------|
E|7-----------------------|5--------------------|3---------------------|3----------10---------------|

*4-ую открытую струну можно не играть

URL

Uploaded:
March 10, 2015, 8:20 PM

Text

Ароматы всех цветов в один собрать
Все как всегда не то нет больше сил врать
Бей меня по губам бей сделай ближе к нему
Никому тебя не отдам
Никогда никому

Все цвета радуги собрать в один белый цвет
Видишь я стал другим прошлого больше нет
Утопи в любви утопи сделай ближе к нему
Никому тебя не отдам
Никогда никому (х3)

Волны семи морей сольются в одну волну
Ты меня согрей как солнце греет луну
Зло завяжи узлом выпей горечь до дна
Чтоб стало легче жить
Никому тебя не отдам
Никогда не смогу забыть (х4)

Comments