Ones Who Love You

Artist: Alvvays (English)
User: Рулон Обоев
Duration: 130 seconds
Delay: 12 seconds
Chord names: Not defined
Abusive:
Comment:
by rasgibson and markiiitu from tabs.ultimate-guitar.com

URL

Uploaded:
January 14, 2020, 5:18 PM

Text

Guitar 2:
B|-------------------|-------------------|----0--------------|-------------------|
G|-------------------|-------------------|--------2---2---2--|-------------------|
D|----2---4---4---4--|----2---5---4---0--|-------------------|----2---5---4---4--|
A|--0---0---0---0----|--0---0---0---0----|-------------------|--0---0---0---0----|
E|-------------------|-------------------|--3---3---3---3----|-------------------|
Guitar 1:
     D   G   A  x2

     D                            G         A
     Take, take from the ones who love you, ooooohooooh
Leave, leave with the ones who don't, ooooohhooooh
Lie, lie to the ones who love you, ooooohhoooohh
Lay, lay with the ones who won't

     G
When lightning strikes
          A
I will be on my bike
I won't be stuck inside
I will be taking flight

Guitar 2:
B|--7---5---3---2----|-7-8-7--5-7-5--3-5-3--2-3-2

then
e|----0----0----0----0--|----0---0---0---0--|
B|-14---14---10---10----|--8---8---7---7----|

They, they are the ones who love you, oooohoooooh
We, we are the ones who don't, oooooohoooooh
Hang up on the ones who lead you, ooooohooooh
Watch out for the ones that won't

—″—
And when the wheels come off
I'll be an astronaut
I won't be lost in space
I will be skipping rocks

         D
When you live on an island
    G            A
    Nothing ever falls in place
The winters are violent
And you can't ever feel your face
You can't fucking feel your face

e|-12-10-9--7--5--

Comments