Adult Diversion

Artist: Alvvays (English)
User: Рулон Обоев
Duration: 130 seconds
Delay: 12 seconds
Chord names: Not defined
Abusive:
Comment:
by qwertyuiopasdfghjklzxcvbn and Kadirfromkotor from tabs.ultimate-guitar.com

URL

Uploaded:
January 13, 2020, 7:12 PM

Text

[Intro]
E|0-0-0-12\-0-0-0-0-0-0-0-0-9- (4x)

e|---------------0----
B|7-7-7-7/9--0-2----2-

    A      F#m            D
    How do I get close to you?
    Bm                A         F#m          Bm     D
    Even if you don't notice as I admire you on the subway

When it's dark outside your house
You won't let anybody out
And keep a padlock on the door, well

    A
    One more cocktail
    E   D  Bm
And I'm on your trail

2th guitar (same time):
e|--0---0-----|--0--0-----|--0---0---|--0---0---|--0---0-----|--0---0-----|--0---0-----|
B|2---2---2/5-|5--5---5\2-|2---2---2-|0---0---0-|2---2---2/5-|5---5---5\2-|2---2---2-2-|

    A           D
    If I should fall
                       A
Act as though it never happened
I will retreat
And sit inside so very quietly
(I will retreat and then go back to university) — 2th verse

2th guitar (same time):
e|5---4---5--|------5-4-5-|-2---2---2---0--2|-2---4--5-------|
B|-----------|-3----------|-----------------|------------2---|

[Solo]
e|--0--------|--0---|2-0------|--0---|--0--------|--0---|2-0------|----------|
B|2---2-2-0-2|2---2-|----2-0--|2---2-|2---2-2-0-2|2---2-|----2-0--|2-3-2-0-2-|
G|-----------|------|--------2|------|-----------|------|--------2|----------|

How do I grow old with you?
Even if you don't notice as I pass by you on the sidewalk
When it's dark outside your house
You won't let anybody out
You're keeping a dead girl in the closet

One more cocktail
Is it a good time?
Or is it highly inappropriate

    D   Bm   D   Bm
    I   want wis-dom (4x)

2th guitar (same time):
B|10-12-14-----------|-10-12-14---------|
G|---------11-11-9-11|----------11-11-9-|

Comments