Ссора

Artist: Илья Орлов (Русский)
User: xyzin
Duration: 130 seconds
Delay: 20 seconds
Chord names: Not defined
Abusive:
Comment: -

URL

Updated last time:
xyzin,
October 6, 2019, 1:29 AM

Text

// Вступление

 Em Csus2 D6-3 Em Csus2 D6-3

// Куплет

 G B7 Em C
Сделай вдох и теперь посмотри на меня
 G B7 Em C
Ночь обжигает так больно
 G B7 Em C
Шаг назад, подожди, говорить буду я
 G B7 Em C
Послушай, лучше спокойно

 Am D
Остановись, пока есть ещё несколько слов
 Em G
Несказанных, не звучавших
 Am C D
Чувство, которое ты называешь любовь
 Em G
В глазах больных и уставших
 Am C B7
Мутный красный цвет

// Проигрыш

 Em D C Am
Сделай вдох, сосчитай про себя до пяти
 G B Em C
Слова отравят смертельно
 G B Em C
Я сумею когда-нибудь молча уйти
 G B Em C
Сейчас я слишком растерян

 Am D
Остановись, пока есть ещё несколько фраз
 Em G
Несказанных, не звучавших
 Am D
Чувство, которое ветром уносит сейчас
 Em G
Из рук пустых и уставших
 Am C B
Бьёт с размаху в грудь
 Am C D
Трудно выдохнуть

// Проигрыш

 C D Em Em
 C D Em Em
 C D Em G
 C B Em

// Повторение

 Am C D
Остановись, пока есть ещё несколько слов
 Em G
Несказанных, не звучавших
 Am C D
Чувство, которое ты называешь любовь...
 Em

---

// Основной бой для концертной версии песни "Ссора"

    G          B7         Em            C          
С | делай в | дох и те | перь посмот | ри на мен | 

  G           B7      Em         C
| я,  ночь | об жи | гает так | больно

Вертикальными линиями обозначены такты (в каждом такте есть четыре четверти,
которые можно посчитать 1-2-3-4)

Вот как выглядит бой для одного такта:

четверти в такте:  1 - 2 - 3 - 4 -
движение руки:     D U D U D U D U
звукоизвлечение:   * * * * x * 

D - движение руки с медиатором вниз (Down), U - движение вверх (Up)
* - значит, что струны дёргаются медиатором в этот момент
x - значит, что струны глушатся (на них кладётся рука с медиатором)

Начинайте играть "бой" медленно, а затем постепенно ускоряйтесь. 
Следите, чтобы рука с медиатором сохраняла движение вверх-вниз, 
даже когда медиатор не задевает струны (например, в 4 четверти).

---

// Вступление

E||--7-0--0--0-5-0--0--0-3-0--0-|--7-0--0--0-5-0--0--0-3-0--0-|
B||-----------------------------|-----------------------------|
G||-----------------------------|-----------------------------|
D||-----------------------------|-----------------------------|
A||-----------------------------|-----------------------------|
E||-----------------------------|-----------------------------|


E||-----------------------------|----------------------------||
B||--1-0--0--0-3-0--0--0-5-0--0-|--3-0--0--0-5-0--0--0-7-----||
G||-----------------------------|---------------------------*||
D||-----------------------------|---------------------------*||
A||-----------------------------|----------------------------||
E||-----------------------------|----------------------------||

     Em
E||-----------------------------|-----------------------------|
B||-----------------------------|-----------------------------|
G||-----------------------------|-----------------------------|
D||-----------------------------|-----------------------------|
A||-----------------------------|-----------------------------|
E||--7-0--0--0-5-0--0--0-3-0--0-|--7-0--0--0-5-0--0--0-3-0--0-|

     Csus2                         D6-3
E||-----------------------------|---------------------------|
B||-----------------------------|---------------------------|
G||-----------------------------|---------------------------|
D||----------------------2------|------------2---------4----|
A||--3-2--2--2-5-2--2--2---2--2-|--5-2--2--2---2--2--2------|
E||-----------------------------|---------------------------|

     Em
E||-----------------------------|-----------------------------|
B||-----------------------------|-----------------------------|
G||-----------------------------|-----------------------------|
D||-----------------------------|-----------------------------|
A||-----------------------------|-----------------------------|
E||--7-0--0--0-5-0--0--0-3-0--0-|--7-0--0--0-5-0--0--0-3-0--0-|

     Csus2                         D6-3
E||-----------------------------|----------------------------||
B||-----------------------------|----------------------------||
G||--4-5--5--5-5-7--7--7-7-9--9-|--5-7--7--7-7-9--9--9-11----||
D||-----------------------------|----------------------------||
A||--2-3--3--3-3-5--5--5-5-7--7-|--3-5--5--5-5-7--7--7--9----||
E||-----------------------------|----------------------------||

---

// Проигрыш

E||-----------------------------|-----------------------------|
B||-----------------------------|-----------------------------|
G||-----------------------------|-----------------------------|
D||-----------------------------|-----------------------------|
A||-----------------------------|-----------------------------|
E||--7-0--0--0-5-0--0--0-3-0--0-|--7-0--0--0-5-0--0--0-3-0--0-|


E||-----------------------------|---------------------------||
B||-----------------------------|---------------------------||
G||-----------------------------|--------------------------*||
D||----------------------2------|------------2---------4---*||
A||--3-2--2--2-5-2--2--2---2--2-|--5-2--2--2---2--2--2------||
E||-----------------------------|---------------------------||

// Аппликатура аккордов из вступления:

    Csus2  D6-3
E||-------------
B||--3------0---
G||--5------7---
D||--5------7---
A||--3------5---
E||-------------

Comments