Over You

Artist: Miranda Lambert (English)
User: Travis Fleury
Duration: 130 seconds
Delay: 12 seconds
Chord names: Not defined
Abusive:
Comment: -

URL

Uploaded:
October 2, 2019, 3:39 AM

Text

Over You chords by Miranda Lambert

Capo: 4th fret

[Intro]

e|--------------------------------------------------------|
B|--------------------------------------------------------|
G|------------0----2----7---------0----2------------------|
D|-------4-------------------4--------------2-------------| x2
A|--------------------------------------------------------|
E|--------------------------------------------------------|

 D  G  D  A  x2


[Verse]

 D                    G      D           A 
Weather man said its gonna snow
 D              G            D               A 
By now I should be used to the cold

 D  G   D  A 

 D         G                        D       A 
Mid-February shouldnt be so scary
          D        G 
It was only December
 D          A                Em               D          G 
I still remember the presents, the tree, you and me


[Chorus]

 D                 A 
But you went away
      Em 
How dare you?
     G 
I miss you
 D                     A 
They say Ill be ok
                  Em          G                  D 
But Im not going to ever get over you

 D   G  D  A 


[Verse]

 D       G               D          A 
Living alone here in this place
 D            G             D         A 
I think of you, and Im not afraid

 D                   G         D                    A 
Your favorite records make me feel better
    D                   G 
Cause you sing along
       D         A 
With every song
                 Em      D             G 
I know you didnt mean to give them to me


[Chorus]

 D             A 
But you went away
     Em 
How dare you?
  G 
I miss you
 D                      A 
They say Ill be ok
                  Em           G                   D 
But Im not going to ever get over you

 D   G  D  A 

         Em              A                        G 
Its really sinks in, ya know, when I see it in stone

 D                   A                Em 
Cause you went away, how dare you?
 G 
I miss you
 D                A 
They say Ill be ok
              Em            G 
But Im not going to ever get over you


[Outro]

e|--------------------------------------------------------|
B|--------------------------------------------------------|
G|------------0----2----7---------0----2------------------|
D|-------4-------------------4--------------2-------------|
A|--------------------------------------------------------|
E|--------------------------------------------------------| x3

Comments