Нога судьбы

Artist: Аквариум (Russian)
User: Vasyl Avramchuk
Duration: 130 seconds
Delay: 12 seconds
Chord names: German (B->H)
Abusive:
Comment:
Взято с https://aquarium.myths.ru/

URL

Updated last time:
Vasyl Avramchuk,
August 20, 2019, 1:34 PM

Text

Каподастр на 3-м ладу
 
Вступление:
E-2-0-3-2---------2--1--0------0-
H--------3-----------------2--3--
G-----------3--3-2---------------
D--------------------------------

E-2-0-3-2---------2-5--8---7--6-
H-3-3-3-3-3-------3-3--10--8--8-
G---------3--3--3---------------
D------------5--5---------------

   D Dsus2 Dsus4 D C       G       A Asus4 A
E-2-0---0-2-0-2-3-10--3-8-5-7--3--5--------
H-----3-------------------------3----------
G------------------------------------------
D------------------------------------------

 D           D/c# Gm6/b                   A
 Быкалай Оптоед      совсем не знал молодёжь.
 D           D/c# G                   A
 Быкалай Оптоед   был в бегах за грабёж.
           G       G/f#        A         Bm
Но он побрил лицо лифтом, он вышел в январь;
       G      G/f#        A
Он сосал бирюзу и ел кусками янтарь;
    Em         G/f#        G      G/f#    Em Em
Океан пел как лошадь, глядящая в зубы коню.
        Em      G/f#            G     G/f#
Он сжёг офис Лукойл вместе с бензоколонкой -
         Em        G/f# G       A         D
Без причин, просто так. Из уважения к огню

Проигрыш: 
   D Dsus2 Dsus4 D GmD  D/c   G Gm
E-----0-----3---2-----2-5-8---10---
H-3----------------3--------3------
G----------------------------------
D----------------------------------

 D           D/c# Gm6/b                   A
Екатерина-с-Песков у нас считалась звезда,
 D           D/c# G                   A
Пока заезжий мордвин не перегрыз провода…
           G       G/f#        A         Bm
Ей было даже смешно, что он не был влюблён;
       G      G/f#        A
Она ела на завтрак таких, как он;
    Em         G/f#        G      G/f#    Em Em
Генеральские дочки знать не знают, что значит «нельзя»;
        Em      G/f#            G     G/f#
А что до всех остальных, то она говорила -
         Em        G/f# G       A         D
На хрена нам враги, когда у нас есть такие друзья?

Проигрыш: 
   D Dsus2 Dsus4 D GmD  D/c G Gm
E-----0-----3---2-----2-5-8--7--6--5-3
H-3----------------3------------------
G-------------------------------------
D-------------------------------------
   D Dsus2 Dsus4 D GmD  D/c G Gm
E-----0-----3---2-----2-5-8--7-6---
H-3----------------3---------------
G----------------------------------
D----------------------------------

 Dm                 Dm/c  Gm6/b                 A
  Acid jazz - это праздник, рок-н-ролл - это жмур
 Dm                  Dm/c Gm6/b           A
  И ди-джей сжал в зубах    холодеющий шнур.
      G     G/f#        A         Bm
Официанты, упав, закричали: “Банзай!”;
         G         G/f#            A
Она шептала: “Мой милый!”. Он шептал: “Отползай!”.
      Em       G/f#      G       G/f#   Em Em
Было ясно как день, что им не уйти далеко
           Em     G/f#         G        G/f#
Восемь суток на тракторе по снежной степи…
       Em      A                 D
Красота никогда не давалась легко.

Проигрыш:  D A Bm G F#Dm Dm/5- G C C/h C/b 
 Cm(IIIBb Gaug/d# E C Bbsus2 Asus4 A

 D           D/c# Gm6/b                   A
Под Тобольском есть плёс, где гнездится минтай,
 D           D/c# G                   A
И там охотничьи тропы на Цейлон и в Китай -
           G       G/f#        A         Bm
Где летучие рыбы сами прыгают в рот,
       G      G/f#        A
Но, другим словами, фэнг-шуй да не тот,
    Em         G/f#        G      G/f#    Em Em
У неё женский бизнес; он танцует и курит грибы.
        Em      G/f#            G     G/f#
Старики говорят о них: “Ом мани пэмэ хум”,
 Em                       A                D
  Что в переводе часто значит – нога судьбы.

Заключение:  D Dsus2 Dsus4 D GmD D/c G Gm  – 2p.  D 

Comments