Lambada

Artist: Kaoma (English)
User: ATMO
Duration: 130 seconds
Delay: 12 seconds
Chord names: Not defined
Abusive:
Comment: -

URL

Updated last time:
ATMO,
August 20, 2019, 2:14 PM

Text

Artist: Kaoma       Song: Lambada
E|-5-6-5------------------------------5-6-5---------------------------
B|-------8-6-5------6-5---------------------8-6-5------6-5------------
G|-------------7--7-----7-5-7---------------------7--7-----7-5-7------
D|----------------------------7-5-7------------------------------7-5-7
A|--------------------------------------------------------------------
E|--------------------------------------------------------------------


E|---------------5--------------------------------5--------------------
B|-----8-6-----6---6-----6-5------------8-6-----6---6-----6-5----------
G|---------7-7-------7-7-----5-5-7-5-7------7-7-------7-7-----5-5-7-5-7
D|---------------------------------------------------------------------
A|---------------------------------------------------------------------
E|---------------------------------------------------------------------

 Dm 
 Dm  Bb  C  F x2
 Gm    C  Dm x2

 Dm               Bb          C            F 
Chorando se foi, quem um dia so me fez chorar
 Dm               Bb          C            F 
Chorando se foi, quem um dia so me fez chorar

 Gm   
Chorando estara, ao lembrar de um amor
       C                Dm 
Que um dia nao soube cuidar
 Gm   
Chorando estara, ao lembrar de um amor
       C               Dm 
Que um dia nao soube cuidar

 Dm             Bb            C         F 
A recordacao, vai estar com ele aonde for
 Dm            Bb            C               F 
A recordacao, vai estar pra sempre aonde zu for

 Gm   
Danca sol e mar, guardare no olmar
   C                    Dm 
O amor faz perder encontrar
 Gm 
Lambando estarei ao lembrar que esta amor
       C                  Dm 
Por um dia um istante foi rei

 Dm  F x2
 Gm  C  Dm 

 Dm             Bb            C         F 
A recordacao, vai estar com ele aonde for
 Dm            Bb            C               F 
A recordacao, vai estar pra sempre aonde zu for

 Gm 
Chorando estara ao lembrar de um amor
       C                Dm 
Que um dia nao soube cuidar
 Gm 
Cancao riso e dor, melodia de um amor
     C              Dm 
Un momento que fica nu ar

 Dm  F x2
 Gm  C  Dm 
 Dm  F x8

Comments