No One / Tattoo

Artist: Boyce Avenue (English)
User: Anthony Amedo
Duration: 130 seconds
Delay: 12 seconds
Chord names: Not defined
Abusive:
Comment: -

URL

Uploaded:
September 5, 2014, 4:43 PM

Text

No One / Tatoo
Artist: Boyce Avenue

Verse 1
 G                             Em
 No matter what you say about love
                        C
 I keep coming back for more
 Keep my hand in the fire
 Sooner or later I get what I'm
         G
 asking for

 G                              Em
 No matter what you say about life
                      C
 I learn every time I bleed
 The truth is a stranger
 Soul is in danger I gotta let
               D
 my spirit be free
 To admit that I'm wrong and
      C
 then change my mind
 D
 Sorry but I have to move on
           C
 and leave you behind

Chorus
 G            D        Em
 No one, no one, no one
                C
 Can get in the way of what I'm
 feeling
 G            D        Em
 No one, no one, no one
               C
 Can get in the way of what I feel
 for you.

Verse 2
 G
 Sick of playing all of these
 Em
 games
                        C
 It's not about taking sides
 When I looked in the mirror,
 it didn't deliver
 It hurt enough to think that
   D
 I could stop
 Admit that I'm wrong and
      C
 then change my mind
 D
 Sorry but I have to move on
           C
 and leave you behind

Chorus
 G            D        Em
 No one, no one, no one
                C
 Can get in the way of what I'm
 feeling
 G            D        Em
 No one, no one, no one
               C
 Can get in the way of what I feel
 for you.

Bridge
(do the where is the love intro)

 G                   D
 People killin', people dyin'
 Children hurt and you hear
       Em
 them cryin'
                           C
 Can you practice what you preach
 And would you turn the other
 G
 cheek
                           D
 Father, Father, Father help us
 Send us some guidance from
 Em
 above
 'Cause people really got me
 C
 questionin'
               G
 Where is the love (Love)
      D         Em
 The love, the love
               C
 Where is the love
                G
 The love, the love
    D       Em
 No one, no one
                C
 Can get in the way of what I'm
 feeling
 G            D        Em
 No one, no one, no one
                C
 Can get in the way of what I'm
 feeling
 G            D        Em
 No one, no one, no one
               C
 Can get in the way of what I feel
 for you.

Repeat Chorus

(Where is the love intro)
e|--------------------------------------
B|--------------------------------------
G|--------------------------------------
D|----0--2--3---------------------------
A|3------------3--2--3--0--0--2--3--0---
E|-------------------------------------3



No One
Boyce Avenue

Key of A

Tuning: D  A  D  E  A  E

X = mute
/ = slide up

Verse 1:
----0--------0--------0--------0---|
---0--0-----0--0-----0--0-----0--0-|
--0--------0-----------------2-----|
--------------------6--------------|
-0--------4------------------------|
-------------------4--------0------|

Pre-chorus:
---0-------0---0---|
-----0-----------0-|
--0-------0---0----|
-x------x----------| (play 2 times)
-2----/-4----0-----|
-2----/-4----0-----|

Chorus:
-0----0----0----0-|
-0----0----0----0-|
-0----7----0----2-|
-7----6----6----0-| (play 2 times)
-0----7----4----0-|
------6----4----0-|

Verse 2: (palm mute throughout) (play loosely)
-------------0---------------------0---------|
-----0---------0----0------0-0--------0---0--|
---0---0---0-------0-----0---0---0------0----|
-2-------2-------2---------------------------|
-0-------0-------0-----4-------4-------4-----|
---------------------------------------------|

-----0---------------------------------------|
-------0-----0------0------0-------0-------0-|
---0-----------0---------0---0---0---0---0---|
-----------6-------6-----0-------0-------0---|
-4-------4-------4-----0-------0-------0-----|
-4-------4-------4-----0-------0-------0-----|

Pre-chorus 2: (slight palm mute)
-----0-------0------0------0-------0-------0-|
-----0-0-----0-0----0------0-0-----0-0-----0-|
---0---0---0---0---0-----0---0---0---0---0---|play2x
-x-------x-------x-----x---------------------|
-2-------2-----/-4-----0-------0-------0-----|
-2-------2-----/-4-----0-------0-------0-----|

Bridge: (palm mute)
---------------------------------------|
-----0-----0------------0-----0--------|
---0---0--0-----------0---0--0---------|
---------------------------------------|
-0-------0--0-2-4-0------------------0-|
--------------------6-------6--2-4-6---|
                                        play3x
---------------------------------------|
-----0-----0------------0--------------|
---0---0--0-----------0---0--0---------|
---------------------------------------|
------------------0--------------5---5-|
-4-------4--2-4-6---0-------0--0---0---|

-0----0----0----0-|
-0----0----0----0-|
-0----0----0----2-| (slight palm mute) (play2x)
-2----4--/-6----0-|
-0----2--/-4----0-|
------2--/-4----0-|

Outro:
-0----0----0----0----0----0----0----0----0-|
-0----0----0----0----0----0----0----0----0-|
-2--/-4--/-5--/-7----2--/-4--/-5--/-7----0-|
-0----2--/-4--/-6----0----2--/-4--/-6----7-|
-0----0----0----0----0----x----x----x----0-|
-0----0----0----0----0----2--/-4--/-6------|

Comments