A Thousand Years

Artist: Boyce Avenue (English)
User: Anthony Amedo
Duration: 130 seconds
Delay: 12 seconds
Chord names: Not defined
Abusive:
Comment: -

URL

Updated last time:
Anthony Amedo,
June 29, 2019, 3:27 PM

Text

A Thousand Years (Christina Perri)
Boyce Avenue
===========â=====s=====â===========
Intro: G D/F# Em D/F# C G/B D 
Whole Step Down (DGCFAd)

 C
 Heartbeats fast
            G/B
 Colors and promises
           Em
 How to be brave
           D/F#       G     C
 How can I love when I'm afraid to fall
                  G/B
 But watching you stand alone
           Em             D/F#  G    C
 All of my doubt suddenly goes away somehow
032030 030032
 Am       Em  D
 One step closer

 G                           D/F#
 I have died everyday waiting for you
 Em                            D/F#
 Darling don't be afraid I have loved you
        C
 For a thousand years
                  G/D  D   D/F#
 I love you for a thousand more

inst: 032030; 030032; 030033; 032035

 Time stands still
 Beauty in all she is
 I will be brave
 I will not let anything take away
 What's standing in front of me
 Every breath
 Every hour has come to this
 One step closer

 G                           D/F#
 I have died everyday waiting for you
 Em                            D/F#
 Darling don't be afraid I have loved you
        C
 For a thousand years
                  G/D  D   D/F#
 I love you for a thousand more

 And all along I believed I would find you
 Time has brought your heart to me
 I have loved you for a thousand years
 I love you for a thousand more

inst:
-0-2-3-5-7-7--7-8-5-3-2-2-5-7-8-
-3-3-3-3-8-10-8---0-3-3-0-3-8-8-
-0-0-0-0-7-7--7---0-0-0-0-2-7-7-
-2-0-0-2-9-9--9---2-------0-0-0-
-3-3-3-3-7-7--7---3-3-3-3-------
-x-x-x-x-x-x--x-0-x-------------

e-10-0-0-----------0-2-----0-2-3-3-5-
B-8--3-3-----0-0---3-3-3-3-3-3-3-3-3-
G-7--0-0-0-2-0-0-2-2-2-0-0-0-0-0-0--
D-0--2---2---2---0-0-2-2-2-2-0-0-----
A----3-3-3-3-----------0---0-------0-
E------------0-0---------------3-----

 Am       Em  D    Am      Em D/F#
(w/o 2 fingers below)
 One step closer, one step closer

 G                           D/F#
 I have died everyday waiting for you
 Em                            D/F#
 Darling don't be afraid I have loved you
        C
 For a thousand years
                  G/D  D   D/F#
 I love you for a thousand more

 And all along I believed I would find you
 Time has brought your heart to me
 I have loved you for a thousand years
 I love you for a thousand more


 One step closer, one step closer

Verse:
   C
e|-------------------------------
B|--------3--------------3-------
G|--------------0--------------0-
D|------------------------------- } 2x
A|--3--3-----3-----3--3-----3----
E|-------------------------------

   G/B
e|-------------------------------
B|--------3--------------3-------
G|--------------0--------------0-
D|------------------------------- } 2x
A|--2--2-----2-----2--2-----2----
E|-------------------------------

   Em
e|-------------------------------
B|--------3--------------3-------
G|--------------0--------------0-
D|-------------------------------
A|-------------------------------
E|--0--0-----0-----0--0-----0----

   D/F#            C
e|-------------------------------
B|--------3--------------3-------
G|--------------0--------------0-
D|-------------------------------
A|-------------------------------
E|--2--2-----2-----3--3-----3----

Comments