Я привык бродить один

Artist: Воскресение (Russian)
User: Alex M
Duration: 130 seconds
Delay: 12 seconds
Chord names: Default
Abusive:
Comment:
Текст и аккорды взяты у Александр Найдович.

Табулатуры записал на основе этого видео
https://www.youtube.com/watch?v=T2Z-KlgVjFs

URL

Updated last time:
Alex M,
December 8, 2018, 3:52 PM

Text

   Bm        Bm/A#     Bm/A      Bm/G#
1|---------|---------|---------|---------|
2|-------3-|-------3-|-------3-|-------3-|
3|-----4---|-----4---|-----4---|-----4---|
4|---4-----|---4-----|---4-----|---4-----|
5|-2-------|-1-------|-0-------|---------|
6|---------|---------|---------|-4-------|
   Gmaj      F#m       F         E
1|---------|---------|---------|---------|
2|-------3-|-------2-|-------1-|-------0-|
3|-----4---|-----2---|-----2---|-----1---|
4|---4-----|---4-----|---3-----|---2-----|
5|---------|---------|---------|---------|
6|-3-------|-2-------|-1-------|-0-------|
   Em        F#        G         F#
1|---------|---------|---------|---------|
2|-------0-|-------2-|-------3-|-------2-|
3|-----0---|-----3---|-----4---|-----3---|
4|---2-----|---4-----|---5-----|---4-----|
5|---------|---------|---------|---------|
6|-2-------|-2-------|-3-------|-2-------|
   Bm        A#m+7      D         E7  
1|---------|---------|---------|---------|
2|-------3-|-------1-|-------3-|-------5-|
3|-----4---|-----3---|-----2---|-----4---|
4|---4-----|---3-----|---4-----|---6-----|
5|-2-------|-1-------|-0-------|---------|
6|---------|---------|---------|-0-------|
   Em      A7        Em      A7
1|-------|-----3---|-------|-----3---|
2|-----3-|----3-3--|-----3-|----3-3--|
3|----0--|---6---3-|----0--|---6---3-|
4|---4---|--5------|---4---|--5------|
5|--2----|-0-------|--2----|-0-------|
6|-0-----|---------|-0-----|---------|

      Bm           Bm/A#
Я привык бродить один 
       Bm/A        Bm/G#
И смотреть в чужие окна,  
      Gmaj        F#m
В суете немых картин  
     F                E
Отражаться в мокрых стёклах,  
       Em          F#
Мне хотелось бы узнать, 
          G
Что вас ждет, 
          F#          Bm
И что тревожит ваши сны. 
         A#m+7         D
Но вот опять приходит ночь  
           E7          Em A7 Em A7   
И день напрасно прожит. 

      Bm        Bm/A#
Мы устали от потерь, 
     Bm/A          Bm/G#
А находим слишком редко. 
       Gmaj        F#m
Мы скитались, а теперь 
      F                  E
Мы живем в хрустальных клетках. 
     Em         F#
И теперь чужая радость 
     G            F#
Не осушит наших слез 
         Bm
И нам осталось 
         A#m+7       D
Только ждать, какая малость, 
         E7            Em A7 Em A7 
Ждать того, кто не придёт. 

         Bm           Bm/A#
Трудно ждать себе не веря, 
         Bm/A         Bm/G#
Все стерпеть ещё труднее. 
          Gmaj           F#m
Зажгите свет, откройте двери, 
            F        E
Быть может мы ещё успеем, 
            Em       F#
Быть может мы ещё услышим, 
        G           F#         Bm
Как стучат сердца и я из дома вышел, 
    A#m+7     D
И увидел, я один и только 
  E7          Em A7 Em A7
Снег на крышах. 

       Bm               Bm/A#
И я бежал из ледяного плена,
          Bm/A             Bm/G#
Мне было мало на земле тепла.
          Gmaj                 F#m
Но я не сдался, я - солдат Вселенной
       F                  E
В мировой войне добра и зла.
       Em          F#
И я обрушил тучи жгучих молний
  G            F#        Bm
В этот мир молчания и льда.
         A#m+7      D
А на земле как всегда
      E7        Em A7 Em A7
То зима, то весна...

Comments