Где ты?

Artist: ИНФИНИТИ (Russian)
User: olega198456
Duration: 130 seconds
Delay: 12 seconds
Chord names: Not defined
Abusive:
Comment: -

URL

Updated last time:
olega198456,
December 5, 2018, 6:12 PM

Text

Вступление (примерный вариант перебора):

 Gm                                 
E|------------------------------------|
H|------------------------------------|
G|-----0--------0--------0--------0-3-|
D|---0---0----0---0----0---0----0-----|
A|------------------------------------|
E|-3--------3--------3--------3-------|
 
  Gm                D#                Cm                D                   
E|------------------------------------------------------------------------|
H|------------------------------------------------------------------------|
G|-----0--------0--------8--------8--------5--------5--------7--------7---|
D|---0---0----0---0----8---8----8---8----5---5----5---5----7---7----7---7-|
A|-------------------6--------6--------3--------3--------5--------5-------|
E|-3--------3-------------------------------------------------------------| - 3 раза

Припев:

   Gm     D#               Cm   D 
Где ты?   Я бегу за тобою,
                               Gm   D#  
Разрываюсь с мечтою,
                       Cm              D 
Растворяюсь в ночи... Не молчи!
 Gm     D#               Cm   D 
Вместе не встречать нам рассветы,    
                Gm   D# 
В два конца, в две планеты, 
            Cm              D 
Вдаль уносишься ты, ты...


 Gm                                                                          
Ты, как обычно, говоришь мне: "До свидания",
 Gm                                                                          
Бескрайний мрак, нас разделяют расстояния
 D#                                                       Cm  D    
В глазах твоих игра, а завтра, как вчера...

 Gm                                           
Бежать, где свет огней...
 Gm                                           
Мечтаю раствориться
 D#                                          
Я просто промолчу -
  Cm     D                
Забыться...

Припев.

 Gm                                                                
Мои желания не дают мне удержаться
 Gm                                                                
За встречей, взгляда мне искать, скитаться
 D#                                                   Cm     D   
Так будет не всегда, закончится игра...

Припев.

Окончание:

  Gm                D#                Cm                D                  
E|------------------------------------------------------------------------|
H|------------------------------------------------------------------------|
G|-----0--------0--------8--------8--------5--------5--------7--------7---|
D|---0---0----0---0----8---8----8---8----5---5----5---5----7---7----7---7-|
A|-------------------6--------6--------3--------3--------5--------5-------|
E|-3--------3-------------------------------------------------------------| - 4 раза

Comments