Feeling Alright tab

Artist: Rebelution (English)
User: Zon Diosana
Duration: 130 seconds
Delay: 12 seconds
Chord names: Not defined
Abusive:
Comment: -

URL

Updated last time:
Zon Diosana,
October 30, 2018, 10:18 AM

Text

@kZ

Intro : 
(Acoustic Guitar)

e'---------------------------------------------------------------0-2-p-0---------------------------------2-----------5------------3----------
B----------------------------0---1-------0------------------------------------3-------------------------3--------------------------------------
G-------------0-h-2------------------------------------2-----------------------------0---------------------------------------------------------
D--------------------------------------------------0-----------------------------------------------------------------------------------------------
A---------------------------------0---------------------------------------------------------------2-----------------------------------------------
E------0-----------------------------------3-------------------------------------------------------------------------------------------------------

e'---------------------------------------------------------------------------------------------------------------------------------------------------
B---------------------------0---1-------0-------------------------------------------------------------------------------------------------------
G------------0-h-2-----------------------------------------2---------0-------------------------------------------------0-h-2---------0---
D---------------------------------------------------0--------0------------------4--------0----------------------4-----------------------------
A------------0----0------0----0---------------------------------------------------------------------2-----------------------------------------
E-----0-----------------------------------3-------------------------------------------------------------------------------------------------------


Solo:
(translated into guitar)

e'-----12-----12--------7----8----10---12-------10-------10--10------------------------10---------------14----10----------
B------8-------8---------8---10---12---13-------12-------10--10-------10------10---------10-----------------------10----
G-------------------------------------------------------------------------------------------11--------------------11-------------------------
D-------------------------------------------------------------------------------------------------------------------------------------------------
A-------------------------------------------------------------------------------------------------------------------------------------------------
E-------------------------------------------------------------------------------------------------------------------------------------------------


e'-----12-----12--------7----8----10---12-------10-------10--10------10-10-10-10-10----------------------------------
B------8-------8---------8---10---12---13-------12-------10--10------10-10--------------------------------------------------
G------------------------------------------------------------------------------------------------11-11-11------7-9--7------------------
D-------------------------------------------------------------------------------------------------------------------------------------------------
A-------------------------------------------------------------------------------------------------------------------------------------------------
E-------------------------------------------------------------------------------------------------------------------------------------------------

Comments