Happy Endings tab

Artist: Sticky Fingers (English)
User: Zon Diosana
Duration: 130 seconds
Delay: 12 seconds
Chord names: Not defined
Abusive:
Comment: -

URL

Updated last time:
Zon Diosana,
October 30, 2018, 10:19 AM

Text

@kZ

History:

x = Slight Slap (for upper strings) or mute
/ = Slide
0 = open

Standard Tunning

[ intro ]

e'--------------------------------------------------------------------------------------------------------------------------------------------------l
B------------------------------------------------------------------1-----------------------------------------------3--------------------3----------l
G-------5-----------------5/7-------0-------12/0---------2----------------------7-----------------------4--------------------4----------l
D-------5-----------------5/7-------0-------12/0---------------------------------7----------------------------------------------------------l
A----------------------------------------------------------------------------------------------------------------------------------------------------l
E'-------5-------x--------5/7-------0-------12/0---------1----------0----------5----------0----------3-----------3--------------------l

[ Solo - expressed on guitar ] - you can also add a little delay/reverb if you like.


e'----------------------------------15----12------------------------------------------------------15-----12----------------------------------l
B---------------------------------------------------15----13----12----------------------------------------------------------------------------l
G-------12----13----14------------------------------------------------14----12----12---------------------------------------------------l
D----------------------------------------------------------------------------------------------------------------------------------------------------l
A----------------------------------------------------------------------------------------------------------------------------------------------------l
E-----------------------------------------------------------------------------------------------------------------------------------------------------l

Comments