You Are My Sunshine (tab)

Artist: Moira Dela Torre (Filipino)
User: Zon Diosana
Duration: 130 seconds
Delay: 12 seconds
Chord names: Not defined
Abusive:
Comment: -

URL

Uploaded:
October 22, 2018, 7:25 AM

Text

 Just repeat this whole pattern all over the track. 
 And please do set you phone display at Orientation setting/position for better view. I'd made it as simple as possible. Thanks.
@kZ


       D                                                                   
'e------2--------2-----------------------2--------2-----------------------2--------2-------------------2-------2---------l
B----3-------3------3---------------3--------3------3---------------3-------3------3-------------3-------3-------3--l
G--------------------------------------------------------------------------------------------------------------------------------l
D--O------0------0---------------O-------0-------0--------------O------0------0--------------O------0------0-----l
A--------------------------------------------------------------------------------------------------------------------------------l
E-------------------------------------------------------------------------------------------------------------------------------l

  Gmaj7                                                                        D                 
'e------2--------2-----------------------2-------2-----------------------2--------2--------------------2------2------------l
B----3-------3------3---------------3-------3-----3-----------------3-------3------3-------------3------3-------3-----l
G----------------------------------------------------------------------------------------------------------------------------------l
D--5------5------5----------------5------5------5----------------O------0------0--------------O-----0------0---------l
A-----------------------------------------------------------------------------------------------------------------------------------l
E------------------------------------------------------------------------------------------------------------------------------------l
  G                                                                               D            
'e------2--------2------------------------2---------2----------------------2--------2------------------2------2-------------l
B----3-------3-------3----------------3--------3------3--------------3-------3------3------------3------3-------3-----l
G-----------------------------------------------------------------------------------------------------------------------------------l
D--5-------5-------5----------------5-------5-------5-------------O------0------0-------------O-----0------0---------l
A-----------------------------------------------------------------------------------------------------------------------------------l
E------------------------------------------------------------------------------------------------------------------------------------l

 
  A6sus4                                 Amsus4                                    D 
'e------2-------2---------------------0-------0----------------------------2--------2--------2------2----------------------l
B----3------3------3-------------3-------3-------3-------------------3-------3------3--------3--------------------------l
G----------------------------------------------------------------------------------------------------------------------------------l
D------------------------------------------------------------------------0------0--------0--------------------------------------l
A--0-----0------0-------------0------0--------0-----------------------------------------------------------------------------l
E-----------------------------------------------------------------------------------------------------------------------------------l

Comments