IISANG BANGKA

Artist: The Dawn (Filipino)
User: Jojo Salvacion
Duration: 130 seconds
Delay: 12 seconds
Chord names: Not defined
Abusive:
Comment: -

URL

Uploaded:
October 9, 2018, 8:38 PM

Text

E
kay dilim at kay ginaw
sa kalawakan ng dagat
ubod lakas kung humiyaw
itong galit na hangin habagat
ngunit bua ang puso mo
ang daluyong ay susugurin          B-A 
magkasama tayo katahimikay hahanapin

stanza II(same as stanza I)
(rythm)
            E              E   
E|----------------------------|
B|----------------------------|
G|----------------------------|
D|----------2--------------2--|
A|----------2--------------2--|
E|--0-0-0-0-0--0-0-0-0-0-0-0--|
    . . . .    . . . . . .
E
saan ang tungo mo mahal kong kaibigan?
sa sasadyain hanap koy katahimikan
basta't tayoy magkasama laging sasabayan
                                      B
pinag samahay nasa puso kaibigan kabarkada
                                       A5
iharap natin ang layag sa humahawi na hangin
                                         C
kapit bisig tayong hanging galit ay hahawiin

refrain I:
E|----------------------|
B|----------------------|
G|-------6---------4----|
D|--2----6----7----4----|
A|--2----4----7----2----|
E|--0----0----5----0----|
  E                    C#
dahon ng damo na tangay ng hangin
  E                         C#
at hindi mo matanaw, kunn saan ka dadalhin
  A5           B5                E          C# 
ngunit kasama mo ako, nakabigkis sa puso mo
 A5                       B         E  
daluyong ng dagat ang tatawirin natin

Interlude:
E|----------------------------------------AH--------AH w/tremolo--------|
B|----9---10---12---10---9h10p9------9--- 10 -12--- 10 -10-9h10p9-10----|
G|--9---9----9----9----9--------9--9---9----9----9-------------------9--|
D|----------------------------------------------------------------------|
A|----------------------------------------------------------------------|
E|----------------------------------------------------------------------|

repeat stanza II

refrainII:(same as refrain I)
  E                   C#
ating liliparin may harang mang sibat
 E                     C# 
ating tatawirin daluyong ng dagat
  A5           B5         E            C#
pagkat kasama mo ako, iisang bangka tayo
 A                      B          E
daluyong ng dagat ang tatawirin natin

(Interlude Ist part)
(repeat refrain II)
repeat Interlude 1st part unti fade

JOJO S.18'

Comments