Desperta (Wake)

Artist: Gabriela Rocha (Portuguese)
User: erlon.mendes42
Duration: 130 seconds
Delay: 12 seconds
Chord names: Not defined
Abusive:
Comment: -

URL

Uploaded:
October 9, 2018, 7:21 PM

Text

Tom: G 
Intro: C  D  Bm  Em 

E|------------------------------------|  
B|------------------------------------|
G|---------------7-7------------------| 
D|-7/9-9-9-7-9-9----------------------| 3x
A|------------------10-10-9-9-7-7-----|
E|------------------------------------| 

E|------------------------------------| 
B|------------------------------------|
G|---------------7-7-9-9-11-11-12-12--| 
D|-7/9-9-9-7-9-9----------------------|
A|------------------------------------|
E|------------------------------------| 

    C            D             Bm          Em 
Ao despertar eu cantarei, teu nome eu proclamarei
    C            D             Bm          Em 
No ritmo do teu coração, levarei a salvação
     C                     D 
Teu fogo em meu olhar brilhando está
    Bm           Em 
 A chama não se apagará
     C            D 
Nas ruas do amor refletirá
      Bm           Em 
Tua glória resplandecerá

 C                     D 
Tu jamais me deixarás, em minha vida estás
   Bm                   Em 
Este amor em meus ser, para sempre brilhará   (2x)

Ponte: C  D  Bm  Em (2x)

 C                D 
Tu vives em mim, vives em mim
 Bm          Em 
 Em meu coração pra sempre

Passagem: C  D  Bm  Em (2x)

  C           D 
Pra sempre, pra sempre
  Bm            Em 
Pra sempre, nesse amor

Final: C  D  Bm  Em 

Comments