I surrender

Artist: Hillsong (English)
User: erlon.mendes42
Duration: 130 seconds
Delay: 12 seconds
Chord names: Not defined
Abusive:
Comment: -

URL

Updated last time:
erlon.mendes42,
October 9, 2018, 7:13 PM

Text

Tom: F (forma dos acordes no tom de C)
Capotraste na 5ª casa
[Intro]
                Am                       C 
E|---------------------------------------------------------------|
B|---------1-----------1------------1-----------1----------------|
G|-------2---2-------2---2--------0---0-------0---0--------------|
D|----2--------2---2-------2---2--------2---2-------2------------|
A|--0------------0-----------3------------3----------------------|
E|---------------------------------------------------------------|

Here I am
Down on my knees again

                G4/F                      F7 +
E|-----------------------------------3-----------3--------------|
B|---------1-----------1-----------1---1-------1---1------------|
G|-------0---0-------0---0--------2------2---2-------2----------|
D|-----3------3----3--------3---3----------3--------------------|
A|--------------------------------------------------------------|
E|--3------------3----------------------------------------------|

Surrendering all
Surrendering all

                  Am                         C 
E|-------------------------------------------------------------|
B|----------1------------1------------1------------1-----------|
G|-------2----2--------2---2--------0---0--------0---0---------|
D|----2----------2---2--------2---2--------2---2-------2-------|
A|--0--------------0------------3------------3-----------------|
E|-------------------------------------------------------------|

 Find me here
Lord as you draw me near

                C4                      F7 +                   Am 
E|------------------------------------3----------3------------|
B|---------1------------1-----------1---1------1---1--------1-|
G|-------0---0--------0---0--------2-----2---2-----2------2---|
D|-----3------3-----3-------3----3---------3------------2-----|
A|----------------------------------------------------0-------|
E|--3------------3--------------------------------------------|

Desperate for you
Desperate for you
I Surrender

Am  C  G4    F7 + )

 Am 
Drench my soul
              C 
As mercy and grace unfold
            G4 
I hunger and thirst
             F7 +
I hunger and thirst

 Am 
With arms stretched wide
            C 
I know you hear my cry
          G4 
Speak to me now
          F7 +
Speak to me now

 Am 
I surrender
 C 
I surrender
           Dm 
I want to know you more
           C4 
I want to know you more

F  C  G9  Dm  Am  G9 )

 F 
Like a rushing wind
         C 
Jesus breathe within
             Dm 
Lord have your way
             Am           G9 
Lord have your way in me

 F 
Like a mighty storm
       C 
Stir within my soul
             Dm 
Lord have your way
              Am        G9 
Lord have your way in me
              Dm 
Lord have your way
              Am        G9 
Lord have your way in me

[Ponte] F  C9  G9  Dm  Am  G9 

 F 
Like a rushing wind
         C 
Jesus breathe within
             Dm 
Lord have your way
             Am         G9 
Lord have your way in me

 F 
Like a mighty storm
       C 
Stir within my soul
             Dm 
Lord have your way
             Am         G9 
Lord have your way in me
             Dm 
Lord have your way
             Am           G9 
Lord have your way in me

 Am 
I surrender
 C 
I surrender
        Dm 
I want know you more
        C4 
I want know you more

Comments