Muralhas

Artist: André Valadão (Portuguese)
User: erlon.mendes42
Duration: 130 seconds
Delay: 12 seconds
Chord names: Not defined
Abusive:
Comment: -

URL

Uploaded:
September 7, 2018, 1:42 AM

Text

Tom: E 
[Intro]  C#m  C#m  A  F#m 

E|---------------------------------------------------|
B|-----9---------------9-------9---------------9-----|
G|-----9--------9--11----------9--------9--11--------|
D|-11-------11-------------11-------11---------------|
A|---------------------------------------------------|
E|---------------------------------------------------|

E|---------------------------------------------------|
B|-----9---------------9-----------------------------|
G|-----9--------9--11-----8----8--9--8---------------|   
D|-11-------11--------------------------9------9--11-|
A|-----------------------------------------11--------|
E|---------------------------------------------------|

 C#m                            A 
Somos filhos de Deus Em uma só voz
           F#m 
Cantamos a esperança
   C#m                                     A 
Muralhas tentam nos separar Mas nada pode parar
            F#m 
O poder do nosso Deus
    C#m                         A              F#m 
Tu vais a nossa frente E todas muralhas vão virar pó
      B9 
Elas cairão

           A          C#m 
Cantamos: Bom, Tu és bom
             E                   B9 
Que o céu se encha com nosso louvor
           A          C#m 
Cantamos: Bom, Tu és bom
           E                B9         C#m  C#m  A  F#m 
Que todos saibam que tu és Senhor, Oh Deus!

C#m  C#m  A  F#m )

E|----------------------------------------------------|
B|-----9---------------9-------9---------------9------|
G|-----9--------9--11----------9--------9--11---------|
D|-11-------11-------------11-------11----------------|
A|----------------------------------------------------|
E|----------------------------------------------------|

E|----------------------------------------------------|
B|-----9---------------9------------------------------|
G|-----9--------9--11-----8----8--9--8----------------|  
D|-11-------11--------------------------9------9--11--|
A|-----------------------------------------11---------|
E|----------------------------------------------------|

 C#m                                    A 
Nós levantamos teu nome Expulsamos as trevas
             F#m            C#m           E 
Deixamos o amor brilhar Tu vais a nossa frente
        A                   F#m 
 E toda muralha vai se dissipar
      B9 
Elas ruirão

           A          C#m 
Cantamos: Bom, Tu és bom
             E                   B9 
Que o céu se encha com nosso louvor
           A          C#m 
Cantamos: Bom, Tu és bom
           E                B9         C#m  A  F#m 
Que todos saibam que tu és Senhor, Oh Deus

 C#m 
Muralhas vão cair
              A    F#m 
Muralhas vão cair, Ohhh Ohhh

[Solo]

E|-----------------------------11-----11------11-----11--------|
B|-9------9------9------9------14b16--14b16--14b16--14b16~-----|
G|-11b13--11b13--11b13--11b13----------------------------------|
D|-------------------------------------------------------------|
A|-------------------------------------------------------------|
E|-------------------------------------------------------------|

E|--9------9------------9---------9----------------------------------------|
B|--12b14-----9--12b14-----9--12-----12----------12------------------------|
G|---------------------------------------12--13------13--12--11p9----------|
D|-----------------------------------------------------------------11--11--|
A|-------------------------------------------------------------------------|
E|-------------------------------------------------------------------------|

E|--12p11--12p11p9---------12p11--12p11p9---------|--------------------------|
B|------------------12--9------------------12--9--|--5----4----10-----9------|
G|------------------------------------------------|--7b9--6h8--12h14--11h13--|
D|------------------------------------------------|--------------------------|
A|------------------------------------------------|--------------------------|
E|------------------------------------------------|--------------------------|

E|--9--9--9--7--------9--9--9--7--------12--12--12--9---------14--14--14--12----------|
B|--------------9--7--------------9--7-----------------12--9------------------14--12--|
G|------------------------------------------------------------------------------------|
D|------------------------------------------------------------------------------------|
A|------------------------------------------------------------------------------------|
E|------------------------------------------------------------------------------------|

E|--14b16--16b14--12--14--12-------------------------|
B|----------------------------14~--------------------|
G|---------------------------------------------------|
D|---------------------------------------------------|
A|---------------------------------------------------|
E|---------------------------------------------------|

           A          C#m 
Cantamos: Bom, Tu és bom
             E                   B9 
Que o céu se encha com nosso louvor
           A          C#m 
Cantamos: Bom, Tu és bom
           E                B9         C#m  A  F#m 
Que todos saibam que tu és Senhor, Oh Deus

E|---------------------------------------------------------|
B|-----9---------------9-------9---------------9-----------|
G|-----9--------9--11----------9--------9--11--------------|
D|-11-------11-------------11-------11---------------------|
A|---------------------------------------------------------|
E|---------------------------------------------------------|

E|---------------------------------------------------------|
B|--9------9--------------------9------9-------------------|
G|--11b13--11b13--11p9----------11b13--11b13--11p9---------| 
D|----------------------11--11----------------------11--11-|
A|---------------------------------------------------------|
E|---------------------------------------------------------|

Comments