I can"t go for that

Artist: Hall and Oates (English)
User: longonsong
Duration: 130 seconds
Delay: 12 seconds
Chord names: Not defined
Abusive:
Comment: -

URL

Uploaded:
July 25, 2018 4:50 AM

Text

 Cm7  F 

[Verse]
 Cm7                        F   
Easy, ready, willing, overtime,
 Cm7 
Where does it stop,
where do you dare me
    F       G 
to draw the line.
 Cm7 
You've got the body,
                        F 
now you want my soul,
 Cm7 
Don't even think about it,
            F    G 
say no go. (Yeah)

[Chorus]
 C  Cmaj7        C7 
I-- I 'll do anything
                 Fmaj7 
that you want me to do,
    C  Cmaj7          C7 
And I'll do almost anything,
                 Fmaj7 
that you want me too, ooh,
    Cm7 (Guitar Intro riff) F 
But I can't go for that, (No can do)
    Cm7                   F 
No, I can't go for that, (No can do)
    Cm7                   F 
Oh, I can't go for that, (No can do)

[Verse]
 Cm7                        F   
Easy, ready, willing, overtime,
 Cm7 
Where does it stop,
where do you dare me
    F       G 
to draw the line.
 Cm7 
You've got the body,
                        F 
now you want my soul,
 Cm7 
Don't even think about it,
            F    G 
say no go. (Yeah)

[Chorus]
 C  Cmaj7        C7 
I-- I 'll do anything
                 Fmaj7 
that you want me to do,
    C  Cmaj7          C7 
And I'll do almost anything,
                 Fmaj7 
that you want me too, ooh,
    Cm7  F 

e|--------------|--------------|--------------|---------------|
B|--------------|--------------|--------------|---------------|
G|--------------|*-------------|--------------|-3------------*|
D|------1-1-1-1-|*3----1-1-1-1-|-5----1-1-1-1-|------1-1-1-1-*|
A|--------------|--------------|--------------|---------------|
E|--------------|--------------|--------------|---------------|

But I can't go for that, (No can do)
    Cm7                   F 
No, I can't go for that, (No can do)
    Cm7                   F 
Oh, I can't go for that, (No can do)

[Chorus]
 C  Cmaj7        C7 
I-- I 'll do anything
                 Fmaj7 
that you want me to do,
    C  Cmaj7          C7 
And I'll do almost anything,
                 Fmaj7 
that you want me too, ooh,

    Cm7  F 

e|--------------|--------------|--------------|---------------|
B|--------------|--------------|--------------|---------------|
G|--------------|*-------------|--------------|-3------------*|
D|------1-1-1-1-|*3----1-1-1-1-|-5----1-1-1-1-|------1-1-1-1-*|
A|--------------|--------------|--------------|---------------|
E|--------------|--------------|--------------|---------------|

But I can't go for that, (No can do)
    Cm7                   F 
No, I can't go for that, (No can do)
    Cm7                   F 
Oh, I can't go for that, (No can do)

[Outro]
    Cm7  F 

e|--------------|--------------|--------------|---------------|
B|--------------|--------------|--------------|---------------|
G|--------------|*-------------|--------------|-3------------*|
D|------1-1-1-1-|*3----1-1-1-1-|-5----1-1-1-1-|------1-1-1-1-*|
A|--------------|--------------|--------------|---------------|
E|--------------|--------------|--------------|---------------|

But I can't go for that, (No can do)
    Cm7                   F 
No, I can't go for that, (No can do)
    Cm7                   F 
Oh, I can't go for that, (No can do) (repeat) fades.

Comments