Дыши

Artist: Многоточие (Russian)
User: Людмила Воротникова
Duration: 130 seconds
Delay: 12 seconds
Chord names: Not defined
Abusive:
Comment: -

URL

Uploaded:
July 10, 2018 8:38 PM

Text

Многоточие - Дыши, аккорды
Тональность
Шрифт
Вступление: Am | Dm | G | E | E7  }x2 
   Am                Dm      G                 E     E7 
e|--12-5--5-7-8-10-|-12-10-|-10-3--12-10-8-7-|-12-7-----
B|-----------------|-------|-----------------|---0------
G|-----------------|-------|---0-------------|----------
D|-----------------|---0---|-----------------|----------
A|----0------------|-------|-----------------|----------
E|-----------------|-------|-----------------|----------

 Am 
Я словно мертвый, оторван от земли, 
 Dm 
Поднятый к небу, отсюда вижу сны. 
 G 
Ты просто представляешь одни красивые сны, 
 C                         E               E7 
А жизнь представить - это просто невозможные мечты. 

 Am 
Она трудна и очень сложна, но разве так можно? 
 Dm 
Не зная, что с тобою будет дальше впереди, 
 G 
Заходить в тупики и унижаться, 
 C                         E               E7 
И как же просто дальше жить и чтоб не огорчаться? 

 Am 
Нет, нет, так не может долго продолжаться. 
 Dm 
Мне нужно думать дальше, с собою разобраться, 
 G 
Добиться цели, быть уверенным в себе, 
 C                         E          E7 
Идти к вершине желаний и навстречу судьбе. 

 Am 
Да я знаю, что это будет нелегко, 
 Dm 
С моей мечтою разбитой будет очень тяжело. 
 G 
Я буду мимо проходить и, разбивая все преграды, 
 C                         E          E7 
За спиною моей не хочу, чтоб были раны. 

Припев:
     Am                     Dm 
     Взгляни на небо, посмотри, как плывут облака. 
     G                     E         E7        Am 
     И солнца свет нам с тобой не поймать никогда. 
     Am                     Dm 
     Наш мир убогий, и в нем нет ни капли души, 
     G                     E         E7     Am 
     Везде пороги, ну а ты не сдавайся - дыши.

Проигрыш:= вступление:
   Am                Dm      G                 E     E7 
e|--12-5--5-7-8-10-|-12-10-|-10-3--12-10-8-7-|-12-7-----
B|-----------------|-------|-----------------|---0------
G|-----------------|-------|---0-------------|----------
D|-----------------|---0---|-----------------|----------
A|----0------------|-------|-----------------|----------
E|-----------------|-------|-----------------|----------

 Am 
Да я слышу, как сердце мое бьется, 
 Dm 
Я еще дышу, но что еще мне остается? 
 G 
Пока я еще живу, и время не стоит на месте, 
 C                         E               E7 
Если есть у меня чувства, то не может быть и мести. 

 Am 
Только дождь за окном успокоит мою душу, 
 Dm 
Не хочу я сейчас, чтобы кто-то меня слушал, 
 G 
Чтобы видели меня у разбитого стекла, 
 C                         E        E7 
Но жизнь прекрасна и прекрасны облака. 

Припев:
     Am                     Dm 
     Взгляни на небо, посмотри, как плывут облака. 
     G                     E         E7        Am 
     И солнца свет нам с тобой не поймать никогда. 
     Am                     Dm 
     Наш мир убогий, и в нем нет ни капли души, 
     G                     E         E7     Am 
     Везде пороги, ну а ты не сдавайся - дыши.

Проигрыш = вступление:
   Am                Dm      G                 E     E7 
e|--12-5--5-7-8-10-|-12-10-|-10-3--12-10-8-7-|-12-7-----
B|-----------------|-------|-----------------|---0------
G|-----------------|-------|---0-------------|----------
D|-----------------|---0---|-----------------|----------
A|----0------------|-------|-----------------|----------
E|-----------------|-------|-----------------|----------

     A#m                     D#m 
     Взгляни на небо, посмотри, как плывут облака. 
     G#                    F          F7       A#m 
     И солнца свет нам с тобой не поймать никогда. 
     A#m                     D#m 
     Наш мир убогий, и в нем нет ни капли души, 
     G#                    F          F7       A#m 
     Везде пороги, ну а ты не сдавайся – дыши, дыши.
     
     Bm                     Em    
     Взгляни на небо, посмотри, как плывут облака. 
     A                     F#        F#7       Bm 
     И солнца свет нам с тобой не поймать никогда. 
     Bm                     Em    
     Наш мир убогий, и в нем нет ни капли души, 
     A                     F#        F#7    Bm 
     Везде пороги, ну а ты не сдавайся – дыши. 

Кода: Bm | Em | A | F# | F#7 

   Bm                 Em      A                  F#       
e|--14-7--7-9-10-12-|-14-12-|-12-5--14-12-10-9-|-14-0-9-|
B|----0-------------|-------|------------------|--------|
G|------------------|-------|------------------|--------|
D|------------------|-------|------------------|--------|
A|------------------|-------|---0--------------|--------|
E|------------------|---0---|------------------|--------|

Comments