Asilos Magdelena

Artist: The Mars Volta (English)
User: relative3
Duration: 130 seconds
Delay: 12 seconds
Chord names: Not defined
Abusive:
Comment: -

URL

Uploaded:
July 10, 2018 5:18 AM

Text

[Intro]

e|------------------------------|------------------------|-----------------|

B|------------------------------|------------------------|-----------------|

G|-7--9--10p9p7-9--7-7--/14-12~-|-0--2--3p2p0-2--0--5-5~-|-----5-5~--(~\~)-|

D|-0--0--0------0--0-0---0--0---|-0--0--0-----0--0--0-0--|-----0-0---------|

A|-0----------------------------|-0----------------------|-----------------|

E|------------------------------|------------------------|-----------------|

   A                              A 



[Verse 1] (x4)

e|-------7-------7----7------0----------3-----------0---------0----0--------------------|

B|-------6-------6----6------3------(2)-2-(2)-------2---------2----2-------6-------6----|

G|---(7)-----(7)----------(2)---2--3--------------(0)------(0)-----------0-------0------|

D|-0-------0--------0---3-----------------------2--------2-------2----/7-----7-5-----5--|

A|--------------------------------------------------------------------------------------|

E|--------------------------------------------------------------------------------------|



[Bridge]

e|--------------------------|

B|-------8-----------10-----|

G|-----7----------10--------|

D|-7-8-----8--/11-------11--|

A|--------------------------|

E|--------------------------|



[Chorus]

e|-12---------10--------8-----------6--------6------6\-3-------5--------1-------3----3------|

B|---------0---------------------------------------------------------------------------2--2-|

G|-----------------7---------9-----------------------------3----------------2------3-----2--|

D|-0-------------7---------8------------7---------7------2---2-----7-7\---0---0---2-----2---|

A|------12----8------8--10-----10\----5---5-----5----------------5---------------------0----|

E|---13-----------------------------6--------6------6\-3-------5--------1-------3----3------|



[Bridge]

e|-1---1-1-1-0-----0~---3---3-3-3-1--0--1~--------------------------------------|

B|-3-----------3---2~---3-------------------6-6-6-5-3----3/5~----2-----2--------|

G|-2-------------2-0~---3---------------------------0~-----------2-----2--------|

D|-0---------------2~---5------------------------------------------2h3---2h3-2--|

A|-0---------------0~-----------------------------------------------------------|

E|------------------------------------------------------------------------------|

   A               A    A 



[Verse] (x4)

(Gtr 1)

e|-------7-------7----7------0----------3-----------0---------0----0-----------------------|

B|-------6-------6----6------3------(2)-2-(2)-------2---------2----2-------6-------6-------|

G|---(7)-----(7)----------(2)---2--3--------------(0)------(0)-----------0-------0---------|

D|-0-------0--------0---3-----------------------2--------2-------2----/7-----7-5------5----|

A|-----------------------------------------------------------------------------------------|

E|-----------------------------------------------------------------------------------------|



(Gtr 2) (x4)

e|-----------------------------------------------------------------------------------------|

B|-10-8---------------------------------------8---------------------------8----8-11-10-8---|

G|------10-9~~~~~~~~~~~~---7--9--10--9--7--9-----6--6~----------------------10----------10~|

D|-----------------------------------------------------------------------------------------|

A|-----------------------------------------------------------------------------------------|

E|-----------------------------------------------------------------------------------------|



[Bridge]

(Gtr 1)

e|--------------------------|

B|-------8-----------10-----|

G|-----7----------10--------|

D|-7-8-----8--/11-------11--|

A|--------------------------|

E|--------------------------|



(Gtr 2)

e|-9-----------------11~/~18---|

B|---10--------10--------------|

G|------12-9------12-10--------|

D|-----------------------------|

A|-----------------------------|

E|-----------------------------|



[Chorus]  

(Gtr 1)

e|-12---------10--------8-----------6--------6------6\-3-------5--------1-------3----3------|

B|---------0---------------------------------------------------------------------------2--2-|

G|-----------------7---------9-----------------------------3----------------2------3-----2--|

D|-0-------------7---------8------------7---------7------2---2-----7-7\---0---0---2-----2---|

A|------12----8------8--10-----10\----5---5-----5----------------5---------------------0----|

E|---13-----------------------------6--------6------6\-3-------5--------1-------3----3------|



[Bridge]

e|-1---1-1-1-0-----0~---3---3-3-3-1--0--1~-------------------------------------|

B|-3-----------3---2~---3-------------------6-6-6-5-----3-/5~----2-----2-------|

G|-2-------------2-0~---3----------------------------------------2-----2-------|

D|-0---------------2~---5------------------------------------------2h3---2h3-2-|

A|-0---------------0~----------------------------------------------------------|

E|-----------------------------------------------------------------------------|

   A               A    A 



[Verse]  

(Gtr 1)   Repeat a lot.

e|-------7-------7----7------0----------3-----------0---------0----0----------------------|

B|-------6-------6----6------3------(2)-2-(2)-------2---------2----2-------6-------6------|

G|---(7)-----(7)----------(2)---2--3--------------(0)------(0)-----------0-------0--------|

D|-0-------0--------0---3-----------------------2--------2-------2----/7-----7-5------5---|

A|----------------------------------------------------------------------------------------|

E|----------------------------------------------------------------------------------------|



(Gtr 2)   Repeat a lot.

e|----------------------------------------------------------------------------------------|

B|-10-8---------------------------------------8------------------------8----8-11-10-8-----|

G|------10-9~--------------7--9--10--9--7--9-----6--6~-------------------10-----------10~-|

D|----------------------------------------------------------------------------------------|

A|----------------------------------------------------------------------------------------|

E|----------------------------------------------------------------------------------------|



(Gtr 3)   Repeat a lot.          Let notes ring.

e|-------13~------------------12~-------------------9~-----------------11~----10~---------|

B|----10-------------------10---------------------8---------------------------------------|

G|-12-------------------10----------------------9-----------------------------------------|

D|----------------------------------------------------------------------------------------|

A|----------------------------------------------------------------------------------------|

E|----------------------------------------------------------------------------------------|



(Electric Guitars at 4:50)

e|--------------------|-----------------------------------------------------------------------|

B|--------------------|-------------------------------------------13--------------13-10-------|

G|-19p14-15--19p14-15-|-19p14-15~--17\12~--14\10~--13\9~--10p9-10----9~------10-9-------10p9~-|

D|--------------------|---------------------------------------------------12------------------|

A|--------------------|-----------------------------------------------------------------------|

E|--------------------|-----------------------------------------------------------------------|

           Fade in...



e|-----------------------------13b-14b-16b-----------------------|

B|-------------10------10/13----------------13--16--b17r16---19b-|

G|-999-12--999-----999-------------------------------------------|

D|---------------------------------------------------------------|

A|---------------------------------------------------------------|

E|---------------------------------------------------------------|

  Just mess with stuff like that for a while...



  Skipping to 5:47                                                          (6:07)

e|----------10-12-13-15-17--13--15---17--13---17--13--15-(repeat)-5----3---5-----5----3~~-|

B|-10-12-13----------------------------------------------------------6-------6------6-----|

G|----------------------------------------------------------------------------------------|

D|----------------------------------------------------------------------------------------|

A|----------------------------------------------------------------------------------------|

E|----------------------------------------------------------------------------------------|






Comments