Лёд и ветер

Artist: Ступин Константин (Russian)
User: Alex M
Duration: 130 seconds
Delay: 12 seconds
Chord names: German (B->H)
Abusive:
Comment: -

URL

Uploaded:
June 6, 2018, 10:45 PM

Text

(будет доработано :)
   Em
5|-10-----9-----7-----9-----10---10---
6|----0-0---0-0---0-0---0-0----0----0-

   C
5|-10-----9-----10-----9-----10---9---
6|----8-8---8-8----8-8---8-8----8---8-

   Em
5|-10-----9------7-----9-----10---12-
6|----0-0----0-0---0-0---0-0----0----

   D
5|-12-------10-------9----10-----9-----10---
6|----10-10----10-10---10----8-8---8-8----8-

   
4|-----------------------------------2------
5|-9-----7-----6-----7-----9---10----2---2\-
6|---7-7---7-7---7-7---7-7---7-----0-0-0----

3|--------------------5-----2--------
4|--------------------5-----2----2---
5|-\10-9-7-9--7-5--3-----0-------2---
6|-----------------------------0-0-0-

         Em
Свет не падал с небес для меня,
           C                 Am
И только древности тень как холод, как страх,
        Em
Где-то там далеко умирает луна,
      C              Am
И мечты как пыль рассыпались в прах,
        C
В глубине веков, где остыл огонь,
          D
И только лёд на вершинах гор,
       Em   C Am  Em C Am  Em C Am
лёд и ветер 

      Em
Я о многом хотел спросить,
      C              Am
не кого-нибудь, а самих богов,
          Em
но боги спят оборвав нить,
        C                     Am
между светом и тьмой, между мной и тобой,
        C
в глубине веков, где остыл огонь,
          D
и только лёд на вершинах гор,
       Em   C Am  Em C Am  Em C Am
лёд и ветер 

         Em
Свет не падал с небес для меня,
           C                 Am
И только древности тень как холод, как страх,
        Em
Где-то там далеко умирает луна,
      C              Am
И мечты как пыль рассыпались в прах,
        C
В глубине веков, где остыл огонь,
          D
И только лёд на вершинах гор,
       Em   C Am  Em C Am  Em C Am
лёд и ветер

Comments