Till I hear it from you

Artist: Gin Blossoms (English)
User: Cuthbert Allgood
Duration: 130 seconds
Delay: 12 seconds
Chord names: Not defined
Abusive:
Comment: -

URL

Updated last time:
Cuthbert Allgood,
May 30, 2018, 10:32 PM

Text

Gin Blossoms — Till I hear it from you
 Title: Till I hear it from you
Artist: Gin Blossoms

Original Key is A� We have to put the capo on the 2nd fret is the chords will like G, 
its actually A.

Note: Capo 2nd Fret
All Tab is related to capo

Tuning: E  A  D  G  B  E 

Chords:

 G   230033
 Em  022033
 Bm  x24432
 D   x00232
 C1  032010
 C2  032033
 Am  x02210
 F   133211

Intro:
      G             Em                 Bm                   D 
e|----3-----2-0-----3-----2-0------2-----2-0---0----2----2-0---0---|
B|------3-------3-----3-------3------3-------3--------3------3-----|
G|--0-----0-------------0--------4-----4----------------2----------|
D|----------------2-------------------------------0----------------|  2X
A|-----------------------------------------------------------------|
E|-----------------------------------------------------------------|


Verse 1:
 G        Em                         Bm 
I didn't ask, you shouldn't have told me
      D 
but first I'd laugh right now
 G               Em                Bm 
I'm sinking in it fast, whatever you sold me
      D 
well baby,

Chorus:
                   C1                D 
 I don't want to take advice from fools
           C1              D 
 I just figured everything is cool
         G       D    Em         C2 
Until I hear it from you (hear it from you)

(Do verse 1 chords)
It gets hard, the memory's faded
who gets what they say
it's likely they're just jealous and jaded
well maybe

Repeat Chorus
        G        D    Em          C2 
Until I hear it from you (hear it from you)

 D               G 
I can't let it get me up
 Am                C 
or break up my train of thought
 D                  G 
as far as I know nothing's wrong
 F            C          G 
but still I hear it from you

e|--------3p2------------------------------|
B|------------3^--3/5-3--------------------|
G|----------------2/4-2-0-2-4-------7-7----|
D|------------------------------2/7--------|
A|---3-3-----------------------------------|
E|-3---------------------------------------|


e|-------7^-10-------------------------------------------------------------|
B|-----8-------10-8-10p8-8p7-7p5-5p3---------------------------------------|
G|-2/7--------------------------------------2-4/7-4-2-0-2-------2-4/7-9-11-|
D|------------------------------------2-4-5---------------2-4-5------------|
A|-------------------------------------------------------------------------|
E|-------------------------------------------------------------------------|


still thinking about not living without it
else I'd look it in
(do intro)
still talking about not stepping around it
well maybe

I don't want to take advice from fools
I just figured everything is cool
Until I hear it from you (hear it from you)
Until I hear it from you (hear it from you)
Until I hear it from you (hear it from you)
                      G    Em    Bm    D 
 'til I hear it from you, oh no
 �til I hear it from you, oh no
  'til I hear it from you  (won't take advice from fools,
                  thinking everything is cool)
 'til I hear it from you  (won't take advice from fools,
                  thinking everything is cool)
 'til I hear it from you

___--Tab__---

         
                    Till i Hear it From you
gin blossom Rules!!!!!!
add nyo ko friendster
                                                                    
E||------------------|------------------|-----5--------4--2--0-----|
B||------------------|------------------|--------5-----------------|
G||------------------|------------------|-----------2-----------2--|
D||------------------|------------------|--7-----------------------|
A||------------------|------------------|--------------------------|
E||------------------|------------------|--------------------------|


                                                      
-----5--------4--2--0-----|-----4--0-----2--0-----4--|
--------5-----------------|-----------2--------2-----|
-----------2-----------2--|--1-----------------------|
--4-----------------------|--------------------------|
--------------------------|--------------------------|
--------------------------|--------------------------|


                                                      
-----4--0-----2--0-----2--|-----5--0-----4--2--0-----|
-----------0--------0-----|--------------------------|
--------------------------|--2--------2-----------2--|
--2-----------------------|--------------------------|
--------------------------|--------------------------|
--------------------------|--------------------------|


                                                      
-----5--------4--2--0-----|-----4--0-----2--0-----4--|
--------5-----------------|-----------2--------2-----|
-----------2-----------2--|--1-----------------------|
--4-----------------------|--------------------------|
--------------------------|--------------------------|
--------------------------|--------------------------|


                                                                 
-----4--0-----2--0--4--0--|------------------|------------------|
-----------0--------------|------------------|------------------|
--------------------------|------------------|------------------|
--2-----------------------|------------------|------------------|
--------------------------|------------------|------------------|
--------------------------|------------------|------------------|


                                                                            



                                                                
------------------|------------------|----5-----------5--------|
------------------|------------------|-------5-----------5-----|
------------------|------------------|----------6-----------6--|
------------------|------------------|-------------6-----------|
------------------|------------------|-------------------------|
------------------|------------------|-------------------------|


                                                                           
----5-----------4--------|----------------------|----5--5--5--5--5--5--5--|
-------5-----------5-----|----------------------|----5--5--5--5--3--3-----|
----------6-----------6--|--7------7--7----7----|----------------------6--|
-------------------------|--7------7--7----7----|-------------------------|
-------------7-----------|---------5--5----5----|-------------------------|
-------------------------|----------------------|-------------------------|


                                                                            

                                                                           
----5-----------5--------|----5-----------4--------|----------------------|
-------5-----------5-----|-------5-----------5-----|----------------------|
----------6-----------6--|----------6-----------6--|--7------7--7----7----|
-------------6-----------|-------------------------|--7------7--7----7----|
-------------------------|-------------7-----------|---------5--5----5----|
-------------------------|-------------------------|----------------------|


                                                                              
----5--5--5--5--5--5--5--|----5-----------5--------|----5-----------4--------|
----5--5--5--5--3--3-----|-------5-----------5-----|-------5-----------5-----|
----------------------6--|----------6-----------6--|----------6-----------6--|
-------------------------|-------------6-----------|-------------------------|
-------------------------|-------------------------|-------------7-----------|
-------------------------|-------------------------|-------------------------|


                                                                    
----------------------|----5--5--5--5--5--5--5--|------------------|
----------------------|----5--5--5--5--3--3-----|------------------|
--7------7--7----7----|----------------------6--|------------------|
--7------7--7----7----|-------------------------|------------------|
---------5--5----5----|-------------------------|------------------|
----------------------|-------------------------|------------------|


                                                                            
------------------|------------------|------------------|------------------|
-

                                                      
-----5--0-----4--2--0-----|-----5--------4--2--0-----|
--------------------------|--------5-----------------|
--2--------2-----------2--|-----------2-----------2--|
--------------------------|--4-----------------------|
--------------------------|--------------------------|
--------------------------|--------------------------|


                                                                  
-----4--0-----2--0-----4--|--4----------------|------------------|
-----------2--------2-----|--5----------------|------------------|
--1-----------------------|--4----------------|------------------|
--------------------------|--2----------------|------------------|
--------------------------|-------------------|------------------|
--------------------------|-------------------|------------------|


                                                                            
------------------|------------------|------------------|------------------|
------------------|------------------|------------------|------------------|
------------------|------------------|------------------|------------------|
------------------|------------------|------------------|------------------|
------------------|------------------|------------------|------------------|
------------------|------------------|------------------|------------------|


                                                                           
----5-----------5--------|----5-----------4--------|----------------------|
-------5-----------5-----|-------5-----------5-----|----------------------|
----------6-----------6--|----------6-----------6--|--7------7--7----7----|
-------------6-----------|-------------------------|--7------7--7----7----|
-------------------------|-------------7-----------|---------5--5----5----|
-------------------------|-------------------------|----------------------|


                                                                              
----5--5--5--5--5--5--5--|----5-----------5--------|----5-----------4--------|
----5--5--5--5--3--3-----|-------5-----------5-----|-------5-----------5-----|
----------------------6--|----------6-----------6--|----------6-----------6--|
-------------------------|-------------6-----------|-------------------------|
-------------------------|-------------------------|-------------7-----------|
-------------------------|-------------------------|-------------------------|


                                                                           
----------------------|----5--5--5--5--5--5--5--|----5-----------5--------|
----------------------|----5--5--5--5--3--3-----|-------5-----------5-----|
--7------7--7----7----|----------------------6--|----------6-----------6--|
--7------7--7----7----|-------------------------|-------------6-----------|
---------5--5----5----|-------------------------|-------------------------|
----------------------|-------------------------|-------------------------|


                                                                                
----5-----------4--------|----------------------|----5--5--5--5--5--5--5--|----|
-------5-----------5-----|----------------------|----5--5--5--5--3--3-----|----|
----------6-----------6--|--7------7--7----7----|----------------------6--|----|
-------------------------|--7------7--7----7----|-------------------------|----|
-------------7-----------|---------5--5----5----|-------------------------|----|
-------------------------|----------------------|-------------------------|----|
        

Comments