Gravity Falls Theme

Artist: Brad Breeck (English)
User: Gryphon Sky
Duration: 130 seconds
Delay: 12 seconds
Chord names: Not defined
Abusive:
Comment: -

URL

Updated last time:
Gryphon Sky,
May 16, 2018 9:33 AM

Text

[INTRO]

   Dm                Dm7               A 
e|-1-------1-------|-1-------1-------|-0-------0-------|-0-------0-------|
b|---3---3---3---3-|---1---1---1---1-|---2---2---2---2-|---2---2---------|
g|-----2-------2---|-----2-------2---|-----2-------2---|-----2-------2---|

[RIFF]

e|-------------0---|-1---------------|-5-------3---5---|-----------------|
b|-3---------------|-----------------|-----------------|-1---------------|

e|-------------0---|-1-------0-------|-3-------5-------|-3-------1-------|
b|-3---------------|-----------------|-----------------|-----------------|

e|-----1---1---1---|-5---5---3---1---|-----5---5---5---|-3---5---3---1---|

e|-----1---1---1---|-5---5---3---1---|-----5---5---5---|-----9---9---9---|

e|-----1---1---1---|-5---5---3---1---|-----6---6---6---|-3-------6b8-----|

e|-5-------8b9-----|

[END]

   Dm      A 
e|-1-------0-------|-----------------|
b|---3---3---2---2-|-3---------------|
g|-----2-------2---|-----------------|

Comments