Вселенная бесконечна?

Artist: Noize MC (Russian)
User: Gryphon Sky
Duration: 130 seconds
Delay: 12 seconds
Chord names: Not defined
Abusive:
Comment:
Тест несколько изменён (мне так больше нравится)

URL

Разбор: https://youtu.be/zIjFW3oYlyA
Клип: https://youtu.be/DBnwy46OPFU
Updated last time:
Gryphon Sky,
May 16, 2018 9:53 AM

Text

[ВОКАЛ] x2

e|-7/8-------------|-----------------|-5/7-------------|-----------------|
b|---------8-------|-----------------|---------8-------|-----------------|

e|-5/7-------------|-----------------|-5/7-------------|-------------7---|
b|---------8-------|-----------------|---------8-------|-----------------|

[ВСТУПЛЕНИЕ] x2

e|-7/8-------------|-----------------|-5/7-------------|-----------------|
b|---------8-------|---------8-------|---------8-------|---------8-------|
g|-----------------|-----9-------9---|-----------------|-----9-------9---|

e|-5/7-------------|-----------------|-5/7-------------|-------------7---|
b|---------8-------|---------8-------|---------8-------|-----------------|
g|-----------------|-----7-------7---|-----------------|---------7-------|

 Am C   Если Вселенная бесконечна действительно, может быть куча копий нашей планеты,
 G  Em  Где сейчас происходят те же события, а копия меня поёт копию песни этой.
        Если Вселенная бесконечна и вправду, то вероятно следует из этого факта,
        Что я точно так же жду, когда ты верёшься обратно, где-то там, в глуби далёких галактик.
        То есть не я, конечно, а моя копия, и не тебя, а твою копию, конечно,
        Если, конечно, всё это не утопия и Вселенная действительно бесконечна.

        Действительно бесконечна!

        Если обдумать подробнее эту гипотезу, посерьёзнее впариться в ситуацию,
        То, помимо миров, повторенных полностью, могут быть и такие, что чем-то отличаются.
        Получается, что где-то на задворках созвездий возможны версии нашего мира,
        Где мы с тобой либо уже не вместе, либо изначально прошли друг друга мимо.
        И мы там, может быть, даже счастливы, то есть, опять же, не мы, а они, к счастью.
        Эти варианты могут быть самыми разными, но о них не хочу даже думать сейчас я.

Припев: Бог — одинокий ребёнок, брошенный всеми
        В пустом магазине игрушек.
        Бродя среди полок, убивающий время,
        Понимая, что взрослым не нужен,
        Он собрал уже тысячи конструкторов разных,
        Он распечатал всех кукол.
        Но он всё ещё ищет детали для пазлов,
        Он все ещё ходит по кругу.

        А есть, наверное, и поудачней расклады, без лишней жести, которая нам досталась,
        Там всё случилось не вопреки всему, а как надо, так, как тут никогда не случалось.
        Мы попадём туда после смерти, может быть, если будем добрыми и хорошими,
        Если играть в то, что нами с тобою прожито, не наскучит малышу, в магазине брошенному.
        Но я надеюсь, это позже случится гораздо, я туда совершенно не тороплюсь.
        Как бы круто там не было, мне одно ясно: ещё сильнее я в тебя все равно не влюблюсь.

Припев.

Comments