Настройка звука

Artist: Сплин (Russian)
User: o.protopopov
Duration: 100 seconds
Delay: 12 seconds
Chord names: Not defined
Abusive:
Comment:
Играется квинтаккордами, которые еще иногда называют power chord.
E5:
E----0----||
B----0----||
G----9----||
D----9----||
A----7----||
E----0----||

F5:
E----0----||
B----0----||
G----10---||
D----10---||
A----8----||
E----0----||

D5:
E----0----||
B----0----||
G----7----||
D----7----||
A----5----||
E----0----||

URL

Updated last time:
o.protopopov,
May 1, 2018, 6:45 PM

Text

Играется квинтаккордами, которые еще иногда называют power chord.
E5:
E----0----||
B----0----||
G----9----||
D----9----||
A----7----||
E----0----||

F5:
E----0----||
B----0----||
G----10---||
D----10---||
A----8----||
E----0----||

D5:
E----0----||
B----0----||
G----7----||
D----7----||
A----5----||
E----0----||

Вступление: 
 
 E5 F5 E5 D5 } 8 раз

Настройка звука,
Настройка звука,
Настройка звука,
Настройка звука,
Настройка звука, звука, звука, звука.
Настройка звука,
Настройка звука,
Настройка звука, звука, звука, звука.

Проигрыш: 

 E5 F5 E5 D5 } 4 раза

Вошла без стука,
Вошла без стука,
Настройка звука,
Вошла без стука
Настройка звука, звука, звука, звука.
Настройка звука,
Вошла без стука
Настройка звука, звука, звука, звука.

Проигрыш: 

 E5 F5 D5 E5

   E5                F5 D5 E5
   Лови свой черно-белый кайф,
   Лови свой черно-белый кайф,
   Лови свой черно-белый кайф,
   Лови свой черно-белый кайф,
   Лови свой черно-белый кайф,
   Лови свой черно-белый кайф,
   Лови свой черно-белый кайф.

   Держись, подруга,
   Держись, подруга,
   Держись, подруга,
   Держись, подруга,
   Держись, подруга друга, друга, друга.
   Держись, подруга,
   Держись, подруга,
   Держись, подруга друга, друга, друга.

   Лови свой черно-белый кайф,
   Лови свой черно-белый кайф,
   Лови свой черно-белый кайф,
   Лови свой черно-белый кайф,
   Лови свой черно-белый кайф,
   Лови свой черно-белый кайф,
   Лови свой черно-белый кайф,
   Лови свой черно-белый кайф,
   Лови свой черно-белый кайф,
   Лови свой черно-белый…

Comments